Oops, an error
Loading. Please wait.

The Wreck Of The Edmund Fitzgerald tab

version 2
version 2

Whole song

Interactive

19,529 views 33 this week
1 commentread comment
1 2 3 4 5
x 7
add to favorites
×
Save as Personal and add changes to this tab that will be seen only by you. Learn more ›
×
You can save this tab as Personal to edit and correct it or add notes. All changes will be seen only by you. Learn more »
launch autoscroll
font size
0
reset
how to read this tab
guitar tuner
edit
Autoscroll
slow
fast
+/-
esc
set tempo
stop
Author
Unregistered
I've seen so many good tabs for this song.  I've never found a
good bass or lead tab though.  I know the chords are correct.
I saw Lightfoot live.  The lead part was a bit hard to catch in
some places, but I changed the settings on media player.  I'm not
a bass player, so the bass part may be wrong in more than a couple
places. Corrections would be appreciated.  This song, like many other
Lightfoot songs, is played with a capo on second fret for lead and
acoustic.  Bass is played open though, because you can't capo a bass.
If you learn this song, there is one rule: GET A TWELVE STRING!!!
This song is so deep and eerie, it just NEEDS a twelve string to sound right.
But most importantly, have fun!

Send corrections to me @ this_email_is_fake@msn.com   (its legit)

oh yeah, one more thing.  There's a keyboard in there somewhere too
but it's just individual notes, and not hard to figure out.

ENJOY!


CHORDS

 Asus2           Em              F III
x_|_|_|_|_|     |_|_|_|_|_|     |_|_|_|_|_|
x_|_2_3_|_|     |_2_3_|_|_|     |_|_|_|_|_|
x_|_|_|_|_|     |_|_|_|_|_|     |_|_|_|_1_1
x_|_|_|_|_|     |_|_|_|_|_|     |_|_|_2_|_|
x_|_|_|_|_|     |_|_|_|_|_|     |_|_3_|_|_|


|_|_|_|_|_|     x_|_|_|_|_|
|_2_|_|_|_|     x_|_|_1_|_2
3_|_|_|_|_4     x_|_|_|_3_|
|_|_|_|_|_|     x_|_|_|_|_|
|_|_|_|_|_|     x_|_|_|_|_|



INTRO  0:00

  1 2 3 4 5 6   1 2 3 4 5 6   1 2 3 4 5 6   1 2 3 4 5 6
  Asus2         F III         D             Asus2
  | ^ ^ | ^ ^   | ^ ^ | ^ ^   | ^ ^ | ^ ^   | ^ ^ | ^ ^
|-0-0-0-0-000-|-3-333-3-333-|-2-222-2-222-|-0-000-0-000-|
|-0-0-0-0-000-|-3-333-3-333-|-3-333-3-333-|-0-000-0-000-| Gtr. 1
|-2-2-2-2-222-|-4-444-4-444-|-2-222-2-222-|-2-222-2-222-| 12 string acoustic
|-2-2-2-2-222-|-5-555-5-555-|-0-000-0-000-|-2-222-2-222-| Capo 2nd
|-0-0-0-0-000-|-------------|-------------|-0-000-0-000-|
|-------------|-------------|-------------|-------------|
|             |             |             |             |
|-5-----5h7p5-|-0-----------|-------------|-------------|
|-5-----5-----|-85---55---7-|-7-----875---|-5-----------| Gtr. 2
|-------------|-------------|-----------7-|-------------| electric
|-------------|-------------|-------------|-------------| /light dist
|-------------|-------------|-------------|-------------| Capo 2nd
|-------------|-------------|-------------|-------------|
|             |             |             |             |
|-------------|-------------|-------------|-------------|
|-------------|-------------|-------------|----------464| Bass
|-------------|-------------|-------------|-------------|
|-------------|-------------|-------------|-------------|

  | ^ ^ | ^ ^   | ^ ^ | ^ ^   | ^ ^ | ^ ^   | ^ ^ | ^ ^
  F III         D             Asus2
|-3-333-3-333-|-2-222-2-222-|-0-000-0-000-|-0-000-0-000-|
|-3-333-3-333-|-3-333-3-333-|-0-000-0-000-|-0-000-0-000-|Gtr.1
|-4-444-4-444-|-2-222-2-222-|-2-222-2-222-|-2-222-2-222-|
|-5-555-5-555-|-0-000-0-000-|-2-222-2-222-|-2-222-2-222-|
|-------------|-------------|-0-000-0-000-|-0-000-0-000-|
|-------------|-------------|-------------|-------------|
|             |             |             |             |
|-------------|-------5-----|-------------|-------------|
|(5)----------|-5b5r5---5-3-|-5-----------|(5)----------|Gtr.2
|-------------|-------------|---2---------|(2)----------|
|-------------|-------------|-------------|-------------|
|-------------|-------------|-------------|-------------|
|-------------|-------------|-------------|-------------|
|             |             |             |             |
|-------------|-------------|-------------|-------------|
|-------------|-------------|-------------|-------------|Bass
|-------------|-------------|-------------|-------------|
|-------------|-------272242|-------------|-----------22|
                      \s/
END INTRO


VERSE 1  0:15

  | ^ ^ | ^ ^   | ^ ^ | ^ ^   | ^ ^ | ^ ^   | ^ ^ | ^ ^   | ^ ^ | ^ ^
  Asus2         Em            G     D       Asus2
|-0-000-0-000-|-0-000-0-000-|-3-33332-2222|-0-000-0-000-|-0-000-0-000-|
|-0-000-0-000-|-0-000-0-000-|-0-00003-3333|-0-000-0-000-|-0-000-0-000-|Gtr.1
|-2-222-2-222-|-0-000-0-000-|-0-00002-2222|-2-222-2-222-|-2-222-2-222-|
|-2-222-2-222-|-2-222-2-222-|-0-00000-0000|-2-222-2-222-|-2-222-2-222-|
|-0-000-0-000-|-2-222-2-222-|-2-2222------|-0-000-0-000-|-0-000-0-000-|
|-------------|-0-000-0-000-|-3-3333------|-------------|-------------|
|             |             |             |             |             |
|-------------|-------------|-------------|-------------|-0-----------|
|-------0-----|-------0-----|-------------|-------0-----|---0---0-----|Gtr. 2
|-----2---2---|-------0-----|-----0-------|-------2-2---|---------2---|
|---2-------2-|-----2-------|---0---0-2-0-|-2-----2---2-|-----2-----2-|
|-0-----------|---2---------|-------------|-------------|-----------0-|
|-------------|-0---------2-|-3-----------|-------------|-------------|
|             |             |             |             |             |
|-------------|-------------|-------------|-------------|-------------|
|-------------|-------------|-------------|-------------|-------------|Bass
|-2-----------|-------------|-------------|-------------|-2-----------|
|-------------|-2---------4-|-5------4----|-2-----------|-------------|

  | ^ ^ | ^ ^   | ^ ^ | ^ ^   | ^ ^ | ^ ^   | ^ ^ | ^ ^   | ^ ^ | ^ ^
  Asus2         Em            G     D       Asus2
|-0-000-0-000-|-0-000-0-000-|-3-33332-2222|-0-000-0-000-|-0-000-0-000-|
|-0-000-0-000-|-0-000-0-000-|-0-00003-3333|-0-000-0-000-|-0-000-0-000-|Gtr.1
|-2-222-2-222-|-0-000-0-000-|-0-00002-2222|-2-222-2-222-|-2-222-2-222-|
|-2-222-2-222-|-2-222-2-222-|-0-00000-0000|-2-222-2-222-|-2-222-2-222-|
|-0-000-0-000-|-2-222-2-222-|-2-2222------|-0-000-0-000-|-0-000-0-000-|
|-------------|-0-000-0-000-|-3-3333------|-------------|-------------|
|             |             |             |             |             |
|-------------|-------------|-------------|-------0-----|-5-----------|
|-------0-----|-------0-----|-------------|------0--0---|-5-----------|Gtr.2
|-----2---2---|---0---0-----|-----0-------|-----2-----2-|-------------|
|---2-------2-|-----2-------|---0---0---0-|-2-----------|-------------|
|-0-----------|-------------|-------------|-0-----------|-------------|
|-------------|-0-------0-2-|-3-----------|-------------|-----------0-|
|             |             |             |             |             |
|-------------|-------------|-------------|-------------|-------------|
|-------------|-------------|-------------|-------------|-------------|Bass
|-2-----------|-------------|-------------|---------2424|-------------|
|-------------|-2---------4-|-5-----4-----|-2-----24----|-2-----------|

  | ^ ^ | ^ ^   | ^ ^ | ^ ^   | ^ ^ | ^ ^   | ^ ^ | ^ ^   | ^ ^ | ^ ^
  Asus2         Em            G     D       Asus2
|-0-000-0-000-|-0-000-0-000-|-3-33332-2222|-0-000-0-000-|-0-000-0-000-|
|-0-000-0-000-|-0-000-0-000-|-0-00003-3333|-0-000-0-000-|-0-000-0-000-|Gtr.1
|-2-222-2-222-|-0-000-0-000-|-0-00002-2222|-2-222-2-222-|-2-222-2-222-|
|-2-222-2-222-|-2-222-2-222-|-0-00000-0000|-2-222-2-222-|-2-222-2-222-|
|-0-000-0-000-|-2-222-2-222-|-2-2222------|-0-000-0-000-|-0-000-0-000-|
|-------------|-0-000-0-000-|-3-3333------|-------------|-------------|
|             |             |             |             |             |
|-------------|-------------|-------------|-------------|-0-----------|
|-------0-----|-------0-----|-----0-------|-------0-----|---0---0-----|Gtr.2
|-----2---2---|-------0-----|-----0-------|-------2-2---|---------2---|
|---2-------2-|-----2-------|---0---0-0-2-|-0-2-------2-|-----2-----2-|
|-0-----------|---2---------|-------------|-0-----------|-------------|
|-------------|-0---------2-|-3-----------|-------------|-------------|
|             |             |             |             |             |
|-------------|-------------|-------------|-------------|-------------|
|-------------|-------------|-------------|-------------|-------------|Bass
|-2-----------|-------------|-------------|-------------|-2-----------|
|-------------|-2---------4-|-5-----4-----|-2-----------|-------------|

  | ^ ^ | ^ ^   | ^ ^ | ^ ^   | ^ ^ | ^ ^   | ^ ^ | ^ ^   | ^ ^ | ^ ^
  Asus2         Em            G     D       Asus2
|-0-000-0-000-|-0-000-0-000-|-3-33332-2222|-0-000-0-000-|-0-000-0-000-|
|-0-000-0-000-|-0-000-0-000-|-0-00003-3333|-0-000-0-000-|-0-000-0-000-|Gtr.1
|-2-222-2-222-|-0-000-0-000-|-0-00002-2222|-2-222-2-222-|-2-222-2-222-|
|-2-222-2-222-|-2-222-2-222-|-0-00000-0000|-2-222-2-222-|-2-222-2-222-|
|-0-000-0-000-|-2-222-2-222-|-2-2222------|-0-000-0-000-|-0-000-0-000-|
|-------------|-0-000-0-000-|-3-3333------|-------------|-------------|
|             |             |             |             |             |
|-------------|-------------|-------------|-------5-----|(5)----------|
|-------0-----|-------0-----|-------------|-----0-------|(0)----------|Gtr.2
|-----2---2---|-------0-----|-----0-------|-----2-------|(2)----------|
|---2-------2-|-----2-------|---0---4-2-0-|---2---------|-------------|
|-0-----------|---2---------|-------------|-0-----------|-------------|
|-------------|-0-------0-2-|-3-----------|-------------|-------------|
|             |             |             |             |             |
|-------------|-------------|-------------|-------------|-------------|
|-------------|-------------|-------------|-------------|-------------|Bass
|-2-----------|-------------|-------------|-------------|-------------|
|-------------|-2---------4-|-5-----4-----|-2---272-----|-----------2-|

END VERSE 1


VERSE 2  0:52

  | ^ ^ | ^ ^   | ^ ^ | ^ ^   | ^ ^ | ^ ^   | ^ ^ | ^ ^
|-0-000-0-000-|-0-000-0-000-|-3-33332-2222|-0-000-0-000-|
|-0-000-0-000-|-0-000-0-000-|-0-00003-3333|-0-000-0-000-|Gtr.1
|-2-222-2-222-|-0-000-0-000-|-0-00002-2222|-2-222-2-222-|
|-2-222-2-222-|-2-222-2-222-|-0-00000-0000|-2-222-2-222-|
|-0-000-0-000-|-2-222-2-222-|-2-2222------|-0-000-0-000-|
|-------------|-0-000-0-000-|-3-3333------|-------------|
|             |             |             |             |
|-------------|-------------|-------------|-------------|
|-------0-----|-------0-----|-------------|-------0-----|Gtr.2
|-----2---2---|-------0-----|-----0-------|-------2-2---|
|---2-------2-|-----2-------|---0---0-2-0-|-2-----2---2-|
|-0-----------|---2---------|-------------|-------------|
|-------------|-0---------2-|-3-----------|-------------|
|             |             |             |             |
|-------------|-------------|-------------|-------------|
|-------------|-------------|-------------|-------------|Bass
|-2-----------|-------------|-------------|---------2424|
|-------------|-2---------4-|-5-----4-----|-2-----24----|

  | ^ ^ | ^ ^   | ^ ^ | ^ ^   | ^ ^ | ^ ^   | ^ ^ | ^ ^
  F III         D             Asus2
|-0-000-0-000-|-0-000-0-000-|-3-33332-2222|-0-000-0-000-|
|-0-000-0-000-|-0-000-0-000-|-0-00003-3333|-0-000-0-000-|Gtr.1
|-2-222-2-222-|-0-000-0-000-|-0-00002-2222|-2-222-2-222-|
|-2-222-2-222-|-2-222-2-222-|-0-00000-0000|-2-222-2-222-|
|-0-000-0-000-|-2-222-2-222-|-2-2222------|-0-000-0-000-|
|-------------|-0-000-0-000-|-3-3333------|-------------|
|             |             |             |             |
|-------------|-------------|-------------|-------0-----|
|-------0-----|-------0-----|-------------|------0--0---|Gtr.2
|-----2---2---|---0---0-----|-----0-------|-----2-----2-|
|---2-------2-|-----2-------|---0---0---0-|-2-----------|
|-0-----------|-------------|-------------|-0-----------|
|-------------|-0-------0-2-|-3-----------|-------------|
|             |             |             |             |
|-------------|-------------|-------------|-------------|
|-------------|-------------|-------------|-------------|Bass
|-2-----------|-------------|-------------|-------------|
|-------------|-2---------4-|-5-----4-----|-2---272-----|
  | ^ ^ | ^ ^   | ^ ^ | ^ ^   | ^ ^ | ^ ^   | ^ ^ | ^ ^
|-0-000-0-000-|-0-000-0-000-|-3-33332-2222|-0-000-0-000-|
|-0-000-0-000-|-0-000-0-000-|-0-00003-3333|-0-000-0-000-|Gtr.1
|-2-222-2-222-|-0-000-0-000-|-0-00002-2222|-2-222-2-222-|
|-2-222-2-222-|-2-222-2-222-|-0-00000-0000|-2-222-2-222-|
|-0-000-0-000-|-2-222-2-222-|-2-2222------|-0-000-0-000-|
|-------------|-0-000-0-000-|-3-3333------|-------------|
|             |             |             |             |
|-------------|-------------|-------------|-------------|
|-------0-----|-------0-----|-----0-------|-------0-----|Gtr.2
|-----2---2---|-------0-----|-----0-------|-------2-2---|
|---2-------2-|-----2-------|---0---0-0-2-|-0-2-------2-|
|-0-----------|---2---------|-------------|-0-----------|
|-------------|-0---------2-|-3-----------|-------------|
|             |             |             |             |
|-------------|-------------|-------------|-------------|
|-------------|-------------|-------------|-------------|Bass
|-2-----------|-------------|-------------|-------------|
|-------------|-2---------4-|-5-----4-----|-2-----------|

  | ^ ^ | ^ ^   | ^ ^ | ^ ^   | ^ ^ | ^ ^   | ^ ^ | ^ ^
|-0-000-0-000-|-0-000-0-000-|-3-33332-2222|-0-000-0-000-|
|-0-000-0-000-|-0-000-0-000-|-0-00003-3333|-0-000-0-000-|Gtr.1
|-2-222-2-222-|-0-000-0-000-|-0-00002-2222|-2-222-2-222-|
|-2-222-2-222-|-2-222-2-222-|-0-00000-0000|-2-222-2-222-|
|-0-000-0-000-|-2-222-2-222-|-2-2222------|-0-000-0-000-|
|-------------|-0-000-0-000-|-3-3333------|-------------|
|             |             |             |             |
|-------------|-------------|-------------|-------5-----|
|-------0-----|-------0-----|-------------|-----0-------|Gtr.2
|-----2---2---|-------0-----|-----0-------|-----2-------|
|---2-------2-|-----2-------|---0---4-2-0-|---2---------|
|-0-----------|---2---------|-------------|-0-----------|
|-------------|-0-------0-2-|-3-----------|-------------|
|             |             |             |             |
|-------------|-------------|-------------|-------------|
|-------------|-------------|-------------|-------------|Bass
|-2-----------|-------------|-------------|-------------|
|-------------|-2---------4-|-5-----4-----|-2-----------|

END VERSE 2


BREAK 2/3  1:22
  | ^ ^ | ^ ^   | ^ ^ | ^ ^   | ^ ^ | ^ ^   | ^ ^ | ^ ^   | ^ ^ | ^ ^
  Asus2         F III         D             Asus2
|-0-000-0-000-|-3-333-3-333-|-2-222-2-222-|-0-000-0-000-|-0-000-0-000-|
|-0-000-0-000-|-3-333-3-333-|-3-333-3-333-|-0-000-0-000-|-0-000-0-000-|Gtr.1
|-2-222-2-222-|-4-444-4-444-|-2-222-2-222-|-2-222-2-222-|-2-222-2-222-|
|-2-222-2-222-|-5-555-5-555-|-0-000-0-000-|-2-222-2-222-|-2-222-2-222-|
|-0-000-0-000-|-------------|-------------|-0-000-0-000-|-0-000-0-000-|
|-------------|-------------|-------------|-------------|-------------|
|             |             |             |             |             |
|-5-----5h7p5-|-0-----------|-------------|-------------|-------------|
|-5-----5-----|-85---55---7-|-7-----875-7-|-5-----------|(5)----------|Gtr.2
|-------------|-------------|-------------|-------------|-------------|
|-------------|-------------|-------------|-------------|-------------|
|-------------|-------------|-------------|-------------|-------------|
|-------------|-------------|-------------|-------------|-------------|
|             |             |             |             |             |
|-----4-4-----|-----4-4-----|-----4-4-----|-----4-4-----|-----4-4-----|
|-------------|-------------|-------------|-------------|-------------|Bass
|-2-----------|-2-----------|-2-----------|-2-----------|-2-----------|
|-------------|-------------|-------------|-------------|-------------|

END BREAK 2/3


VERSE 3  1:31

  | ^ ^ | ^ ^   | ^ ^ | ^ ^   | ^ ^ | ^ ^   | ^ ^ | ^ ^   | ^ ^ | ^ ^
  Asus2         Em            G     D       Asus2
|-0-000-0-000-|-0-000-0-000-|-3-33332-2222|-0-000-0-000-|-0-000-0-000-|
|-0-000-0-000-|-0-000-0-000-|-0-00003-3333|-0-000-0-000-|-0-000-0-000-|Gtr.1
|-2-222-2-222-|-0-000-0-000-|-0-00002-2222|-2-222-2-222-|-2-222-2-222-|
|-2-222-2-222-|-2-222-2-222-|-0-00000-0000|-2-222-2-222-|-2-222-2-222-|
|-0-000-0-000-|-2-222-2-222-|-2-2222------|-0-000-0-000-|-0-000-0-000-|
|-------------|-0-000-0-000-|-3-3333------|-------------|-------------|
|             |             |             |             |             |
|-------------|-------------|-------------|-------------|-0-----------|
|-------0-----|-------0-----|-------------|-------0-----|---0---0-----|Gtr.2
|-----2---2---|-------0-----|-----0-------|-------2-2---|---------2---|
|---2-------2-|-----2-------|---0---0-2-0-|-2-----2---2-|-----2-----2-|
|-0-----------|---2---------|-------------|-------------|-----------0-|
|-------------|-0---------2-|-3-----------|-------------|-------------|
|             |             |             |             |             |
|-------------|-------------|-------------|-------------|-------------|
|-------------|-------------|-------------|-------------|-------------|Bass
|-2-----------|-------------|-------------|-------------|-2-----------|
|-------------|-2---------4-|-5------4----|-2-----------|-------------|

  | ^ ^ | ^ ^   | ^ ^ | ^ ^   | ^ ^ | ^ ^   | ^ ^ | ^ ^   | ^ ^ | ^ ^
  Asus2         Em            G     D       Asus2
|-0-000-0-000-|-0-000-0-000-|-3-33332-2222|-0-000-0-000-|-0-000-0-000-|
|-0-000-0-000-|-0-000-0-000-|-0-00003-3333|-0-000-0-000-|-0-000-0-000-|Gtr.1
|-2-222-2-222-|-0-000-0-000-|-0-00002-2222|-2-222-2-222-|-2-222-2-222-|
|-2-222-2-222-|-2-222-2-222-|-0-00000-0000|-2-222-2-222-|-2-222-2-222-|
|-0-000-0-000-|-2-222-2-222-|-2-2222------|-0-000-0-000-|-0-000-0-000-|
|-------------|-0-000-0-000-|-3-3333------|-------------|-------------|
|             |             |             |             |             |
|-------------|-------------|-------------|-------0-----|-5-----------|
|-------0-----|-------0-----|-------------|------0--0---|-5-----------|Gtr. 2
|-----2---2---|---0---0-----|-----0-------|-----2-----2-|-------------|
|---2-------2-|-----2-------|---0---0---0-|-2-----------|-------------|
|-0-----------|-------------|-------------|-0-----------|-------------|
|-------------|-0-------0-2-|-3-----------|-------------|-----------0-|
|             |             |             |             |             |
|-------------|-------------|-------------|-------------|-------------|
|-------------|-------------|-------------|-------------|-------------|Bass
|-2-----------|-------------|-------------|-------------|-2-----------|
|-------------|-2---------4-|-5-----4-----|-2-----------|-------------|

  | ^ ^ | ^ ^   | ^ ^ | ^ ^   | ^ ^ | ^ ^   | ^ ^ | ^ ^
  Asus2         Em            G     D       Asus2
|-0-000-0-000-|-0-000-0-000-|-3-33332-2222|-0-000-0-000-|
|-0-000-0-000-|-0-000-0-000-|-0-00003-3333|-0-000-0-000-|Gtr.1
|-2-222-2-222-|-0-000-0-000-|-0-00002-2222|-2-222-2-222-|
|-2-222-2-222-|-2-222-2-222-|-0-00000-0000|-2-222-2-222-|
|-0-000-0-000-|-2-222-2-222-|-2-2222------|-0-000-0-000-|
|-------------|-0-000-0-000-|-3-3333------|-------------|
|             |             |             |             |
|-------------|-------------|-------------|-------------|
|-------0-----|-------0-----|-----0-------|-------0-----|Gtr.2
|-----2---2---|-------0-----|-----0-------|-------2-2---|
|---2-------2-|-----2-------|---0---0-0-2-|-0-2-------2-|
|-0-----------|---2---------|-------------|-0-----------|
|-------------|-0---------2-|-3-----------|-------------|
|             |             |             |             |
|-------------|-------------|-------------|-------------|
|-------------|-------------|-------------|-------------|Bass
|-2-----------|-------------|-------------|-------------|
|-------------|-2---------4-|-5-----4-----|-2-----------|

  | ^ ^ | ^ ^   | ^ ^ | ^ ^   | ^ ^ | ^ ^   | ^ ^ | ^ ^
  Asus2         Em            G     D       Asus2
|-0-000-0-000-|-0-000-0-000-|-3-33332-2222|-0-000-0-000-|
|-0-000-0-000-|-0-000-0-000-|-0-00003-3333|-0-000-0-000-|Gtr.1
|-2-222-2-222-|-0-000-0-000-|-0-00002-2222|-2-222-2-222-|
|-2-222-2-222-|-2-222-2-222-|-0-00000-0000|-2-222-2-222-|
|-0-000-0-000-|-2-222-2-222-|-2-2222------|-0-000-0-000-|
|-------------|-0-000-0-000-|-3-3333------|-------------|
|             |             |             |             |
|-------------|-------------|-------------|-------5-----|
|-------0-----|-------0-----|-------------|-----0-------|Gtr.2
|-----2---2---|-------0-----|-----0-------|-----2-------|
|---2-------2-|-----2-------|---0---4-2-0-|---2---------|
|-0-----------|---2---------|-------------|-0-----------|
|-------------|-0-------0-2-|-3-----------|-------------|
|             |             |             |             |
|-------------|-------------|-------------|-------------|
|-------------|-------------|-------------|-------------|Bass
|-2-----------|-------------|-------------|-------------|
|-------------|-2---------4-|-5-----4-----|-2-----------|

END VERSE 3


BREAK 3/4  2:05

  | ^ ^ | ^ ^   | ^ ^ | ^ ^   | ^ ^ | ^ ^   | ^ ^ | ^ ^
  Asus2         F III         D             Asus2
|-0-000-0-000-|-3-333-3-333-|-2-222-2-222-|-0-000-0-000-|
|-0-000-0-000-|-3-333-3-333-|-3-333-3-333-|-0-000-0-000-|Gtr.1
|-2-222-2-222-|-4-444-4-444-|-2-222-2-222-|-2-222-2-222-|
|-2-222-2-222-|-5-555-5-555-|-0-000-0-000-|-2-222-2-222-|
|-0-000-0-000-|-------------|-------------|-0-000-0-000-|
|-------------|-------------|-------------|-------------|
|             |             |             |             |
|-5-----5h7p5-|-0-----------|-------------|--5----------|
|-5-----5-----|-85---55---7-|-7-----875---|-5-----------|Gtr.2
|-------------|-------------|-----------7-|-------------|
|-------------|-------------|-------------|-------------|
|-------------|-------------|-------------|-------------|
|-------------|-------------|-------------|-------------|
|             |             |             |             |
|-----4-4-----|-----4-4-----|-----4-4-----|-------------|
|-------------|-------------|-------------|------24-----|Bass
|-2-----------|-2-----------|-2---------24|-2---2-------|
|-------------|-------------|-------------|-------------|

  | ^ ^ | ^ ^   | ^ ^ | ^ ^   | ^ ^ | ^ ^   | ^ ^ | ^ ^
  F III         D             Asus2
|-3-333-3-333-|-2-222-2-222-|-0-000-0-000-|-0-000-0-000-|
|-3-333-3-333-|-3-333-3-333-|-0-000-0-000-|-0-000-0-000-|Gtr.1
|-4-444-4-444-|-2-222-2-222-|-2-222-2-222-|-2-222-2-222-|
|-5-555-5-555-|-0-000-0-000-|-2-222-2-222-|-2-222-2-222-|
|-------------|-------------|-0-000-0-000-|-0-000-0-000-|
|-------------|-------------|-------------|-------------|
|             |             |             |             |
|-------------|-------5-----|-------------|-------------|
|-7-----8-7-5-|-7-------7-3-|-5-----------|(5)----------|Gtr.2
|-------------|-------------|---2---------|(2)----------|
|-------------|-------------|-------------|-------------|
|-------------|-------------|-------------|-------------|
|-------------|-------------|-------------|-------------|
|             |             |             |             |
|-----4-4-----|-----4-4-----|-----4-4-----|-----4-4-----|
|-------------|-------------|-------------|-------------|Bass
|-2-----------|-2-----------|-2-----------|-2-----------|
|-------------|-------------|-------------|-------------|

END BREAK 3/4


VERSE 4  2:20

  | ^ ^ | ^ ^   | ^ ^ | ^ ^   | ^ ^ | ^ ^   | ^ ^ | ^ ^   | ^ ^ | ^ ^
  Asus2         Em            G     D       Asus2
|-0-000-0-000-|-0-000-0-000-|-3-33332-2222|-0-000-0-000-|-0-000-0-000-|
|-0-000-0-000-|-0-000-0-000-|-0-00003-3333|-0-000-0-000-|-0-000-0-000-|Gtr.1
|-2-222-2-222-|-0-000-0-000-|-0-00002-2222|-2-222-2-222-|-2-222-2-222-|
|-2-222-2-222-|-2-222-2-222-|-0-00000-0000|-2-222-2-222-|-2-222-2-222-|
|-0-000-0-000-|-2-222-2-222-|-2-2222------|-0-000-0-000-|-0-000-0-000-|
|-------------|-0-000-0-000-|-3-3333------|-------------|-------------|
|             |             |             |             |             |
|-555333000333|-555333000333|-555333000333|-555333000333|-555333000333|
|-------------|-------------|-------------|-------------|-------------|Gtr.2
|-------------|-------------|-------------|-------------|-------------|
|-------------|-------------|-------------|-------------|-------------|
|-------------|-------------|-------------|-------------|-------------|
|-------------|-------------|-------------|-------------|-------------|
|             |             |             |             |             |
|-------------|-------------|-------------|-------------|-------------|
|-------------|-------------|-------------|-------------|-------------|Bass
|-2-----------|-------------|-------------|-------2-----|-------2-----|
|-------------|-2---------4-|-5------4----|-2-----------|-2-----------|

  | ^ ^ | ^ ^   | ^ ^ | ^ ^   | ^ ^ | ^ ^   | ^ ^ | ^ ^   | ^ ^ | ^ ^
  Asus2         Em            G     D       Asus2
|-0-000-0-000-|-0-000-0-000-|-3-33332-2222|-0-000-0-000-|-0-000-0-000-|
|-0-000-0-000-|-0-000-0-000-|-0-00003-3333|-0-000-0-000-|-0-000-0-000-|Gtr.1
|-2-222-2-222-|-0-000-0-000-|-0-00002-2222|-2-222-2-222-|-2-222-2-222-|
|-2-222-2-222-|-2-222-2-222-|-0-00000-0000|-2-222-2-222-|-2-222-2-222-|
|-0-000-0-000-|-2-222-2-222-|-2-2222------|-0-000-0-000-|-0-000-0-000-|
|-------------|-0-000-0-000-|-3-3333------|-------------|-------------|
|             |             |             |             |             |
|-555333000333|-555333000333|-555333000333|-555333000333|-555333000333|
|-------------|-------------|-------------|-------------|-------------|Gtr.2
|-------------|-------------|-------------|-------------|-------------|
|-------------|-------------|-------------|-------------|-------------|
|-------------|-------------|-------------|-------------|-------------|
|-------------|-------------|-------------|-------------|-------------|
|             |             |             |             |             |
|-------------|-------------|-------------|-------------|-------------|
|-------------|-------------|-------------|-------------|-------------|Bass
|-2-----------|-------------|-------------|-------2-----|-------2-----|
|-------------|-2---------4-|-5-----4-----|-2-----------|-2-----------|

  | ^ ^ | ^ ^   | ^ ^ | ^ ^   | ^ ^ | ^ ^   | ^ ^ | ^ ^
  Asus2         Em            G     D       Asus2
|-0-000-0-000-|-0-000-0-000-|-3-33332-2222|-0-000-0-000-|
|-0-000-0-000-|-0-000-0-000-|-0-00003-3333|-0-000-0-000-|Gtr.1
|-2-222-2-222-|-0-000-0-000-|-0-00002-2222|-2-222-2-222-|
|-2-222-2-222-|-2-222-2-222-|-0-00000-0000|-2-222-2-222-|
|-0-000-0-000-|-2-222-2-222-|-2-2222------|-0-000-0-000-|
|-------------|-0-000-0-000-|-3-3333------|-------------|
|             |             |             |             |
|-555333000333|-555333000333|-555333000333|-555333000333|
|-------------|-------------|-------------|-------------|Gtr.2
|-------------|-------------|-------------|-------------|
|-------------|-------------|-------------|-------------|
|-------------|-------------|-------------|-------------|
|-------------|-------------|-------------|-------------|
|             |             |             |             |
|-------------|-------------|-------------|-------------|
|-------------|-------------|-------------|-------------|Bass
|-2-----------|-------------|-------------|-------2-----|
|-------------|-2---------4-|-5-----4-----|-2-----------|

  | ^ ^ | ^ ^   | ^ ^ | ^ ^   | ^ ^ | ^ ^   | ^ ^ | ^ ^
  Asus2         Em            G     D       Asus2
|-0-000-0-000-|-0-000-0-000-|-3-33332-2222|-0-000-0-000-|
|-0-000-0-000-|-0-000-0-000-|-0-00003-3333|-0-000-0-000-|Gtr.1
|-2-222-2-222-|-0-000-0-000-|-0-00002-2222|-2-222-2-222-|
|-2-222-2-222-|-2-222-2-222-|-0-00000-0000|-2-222-2-222-|
|-0-000-0-000-|-2-222-2-222-|-2-2222------|-0-000-0-000-|
|-------------|-0-000-0-000-|-3-3333------|-------------|
|             |             |             |             |
|-555333000333|-555333000333|-555333000333|-555333000333|
|-------------|-------------|-------------|-------------|Gtr.2
|-------------|-------------|-------------|-------------|
|-------------|-------------|-------------|-------------|
|-------------|-------------|-------------|-------------|
|-------------|-------------|-------------|-------------|
|             |             |             |             |
|-------------|-------------|-------------|-------------|
|-------------|-------------|-------------|-------------|Bass
|-2-----------|-------------|-------------|-------2-----|
|-------------|-2---------4-|-5-----4-----|-2-----------|

END VERSE 4


BREAK 4/5  2:53

  | ^ ^ | ^ ^   | ^ ^ | ^ ^   | ^ ^ | ^ ^   | ^ ^ | ^ ^
  Asus2         F III         D             Asus2
|-0-000-0-000-|-3-333-3-333-|-2-222-2-222-|-0-000-0-000-|
|-0-000-0-000-|-3-333-3-333-|-3-333-3-333-|-0-000-0-000-|Gtr.1
|-2-222-2-222-|-4-444-4-444-|-2-222-2-222-|-2-222-2-222-|
|-2-222-2-222-|-5-555-5-555-|-0-000-0-000-|-2-222-2-222-|
|-0-000-0-000-|-------------|-------------|-0-000-0-000-|
|-------------|-------------|-------------|-------------|
|             |             |             |             |
|-5-----5h7p5-|-0-----------|-------------|--5----------|
|-5-----5-----|-85---55---7-|-7-----875---|-5-----------|Gtr.2
|-------------|-------------|-----------7-|-------------|
|-------------|-------------|-------------|-------------|
|-------------|-------------|-------------|-------------|
|-------------|-------------|-------------|-------------|
|             |             |             |             |
|-----4-4-----|-----4-4-----|-----4-4-----|-------------|
|-------------|-------------|-------------|------24-----|Bass
|-2-----------|-2-----------|-2---------24|-2---2-------|
|-------------|-------------|-------------|-------------|

  | ^ ^ | ^ ^   | ^ ^ | ^ ^   | ^ ^ | ^ ^   | ^ ^ | ^ ^
  F III         D             Asus2
|-3-333-3-333-|-2-222-2-222-|-0-000-0-000-|-0-000-0-000-|
|-3-333-3-333-|-3-333-3-333-|-0-000-0-000-|-0-000-0-000-|Gtr.1
|-4-444-4-444-|-2-222-2-222-|-2-222-2-222-|-2-222-2-222-|
|-5-555-5-555-|-0-000-0-000-|-2-222-2-222-|-2-222-2-222-|
|-------------|-------------|-0-000-0-000-|-0-000-0-000-|
|-------------|-------------|-------------|-------------|
|             |             |             |             |
|-------------|-------5-----|-------------|-------------|
|-7-----8-7-5-|-7-------7-3-|-5-----------|(5)----------|Gtr.2
|-------------|-------------|---2---------|(2)----------|
|-------------|-------------|-------------|-------------|
|-------------|-------------|-------------|-------------|
|-------------|-------------|-------------|-------------|
|             |             |             |             |
|-----4-4-----|-----4-4-----|-----4-4-----|-----4-4-----|
|-------------|-------------|-------------|-------------|Bass
|-2-----------|-2-----------|-2-----------|-2-----------|
|-------------|-------------|-------------|-------------|

END BREAK 4/5


VERSE 5  3:08

  | ^ ^ | ^ ^   | ^ ^ | ^ ^
  Asus2
|-0-000-0-000-|-0-000-0-000-|
|-0-000-0-000-|-0-000-0-000-|Gtr.1
|-2-222-2-222-|-2-222-2-222-|
|-2-222-2-222-|-2-222-2-222-|
|-0-000-0-000-|-0-000-0-000-|
|-------------|-------------|
|             |             |
|-------------|-------------|
|-------0-----|-------0-----|Gtr.2
|-----2---2---|-----2---2---|
|---2-------2-|---2-------2-|
|-0-----------|-0-----------|
|-------------|-------------|
|             |             |
|-4-----------|-------------|
|-------------|-------------|Bass
|-----------24|-2-----------|
|-------------|-------------|

  | ^ ^ | ^ ^   | ^ ^ | ^ ^   | ^ ^ | ^ ^   | ^ ^ | ^ ^   | ^ ^ | ^ ^
  Asus2         Em            G     D       Asus2
|-0-000-0-000-|-0-000-0-000-|-3-33332-2222|-0-000-0-000-|-0-000-0-000-|
|-0-000-0-000-|-0-000-0-000-|-0-00003-3333|-0-000-0-000-|-0-000-0-000-|Gtr.1
|-2-222-2-222-|-0-000-0-000-|-0-00002-2222|-2-222-2-222-|-2-222-2-222-|
|-2-222-2-222-|-2-222-2-222-|-0-00000-0000|-2-222-2-222-|-2-222-2-222-|
|-0-000-0-000-|-2-222-2-222-|-2-2222------|-0-000-0-000-|-0-000-0-000-|
|-------------|-0-000-0-000-|-3-3333------|-------------|-------------|
|             |             |             |             |             |
|-------------|-------------|-------------|-------------|-0-----------|
|-------0-----|-------0-----|-------------|-------0-----|---0---0-----|Gtr.2
|-----2---2---|-------0-----|-----0-------|-------2-2---|---------2---|
|---2-------2-|-----2-------|---0---0-2-0-|-2-----2---2-|-----2-----2-|
|-0-----------|---2---------|-------------|-------------|-----------0-|
|-------------|-0---------2-|-3-----------|-------------|-------------|
|             |             |             |             |             |
|-------------|-------------|-------------|-------------|-------------|
|-------------|-------------|-------------|-------------|-------------|Bass
|-2-----------|-------------|-------------|-------------|-2-----------|
|-------------|-2---------4-|-5------4----|-2-----------|-------------|

  | ^ ^ | ^ ^   | ^ ^ | ^ ^   | ^ ^ | ^ ^   | ^ ^ | ^ ^   | ^ ^ | ^ ^
  Asus2         Em            G     D       Asus2
|-0-000-0-000-|-0-000-0-000-|-3-33332-2222|-0-000-0-000-|-0-000-0-000-|
|-0-000-0-000-|-0-000-0-000-|-0-00003-3333|-0-000-0-000-|-0-000-0-000-|Gtr.1
|-2-222-2-222-|-0-000-0-000-|-0-00002-2222|-2-222-2-222-|-2-222-2-222-|
|-2-222-2-222-|-2-222-2-222-|-0-00000-0000|-2-222-2-222-|-2-222-2-222-|
|-0-000-0-000-|-2-222-2-222-|-2-2222------|-0-000-0-000-|-0-000-0-000-|
|-------------|-0-000-0-000-|-3-3333------|-------------|-------------|
|             |             |             |             |             |
|-------------|-------------|-------------|-------0-----|-5-----------|
|-------0-----|-------0-----|-------------|------0--0---|-5-----------|Gtr.2
|-----2---2---|---0---0-----|-----0-------|-----2-----2-|-------------|
|---2-------2-|-----2-------|---0---0---0-|-2-----------|-------------|
|-0-----------|-------------|-------------|-0-----------|-------------|
|-------------|-0-------0-2-|-3-----------|-------------|-----------0-|
|             |             |             |             |             |
|-------------|-------------|-------------|-------------|-------------|
|-------------|-------------|-------------|-------------|-------------|Bass
|-2-----------|-------------|-------------|-------------|-2-----------|
|-------------|-2---------4-|-5-----4-----|-2-----------|-------------|

  | ^ ^ | ^ ^   | ^ ^ | ^ ^   | ^ ^ | ^ ^   | ^ ^ | ^ ^
  Asus2         Em            G     D       Asus2
|-0-000-0-000-|-0-000-0-000-|-3-33332-2222|-0-000-0-000-|
|-0-000-0-000-|-0-000-0-000-|-0-00003-3333|-0-000-0-000-|Gtr.1
|-2-222-2-222-|-0-000-0-000-|-0-00002-2222|-2-222-2-222-|
|-2-222-2-222-|-2-222-2-222-|-0-00000-0000|-2-222-2-222-|
|-0-000-0-000-|-2-222-2-222-|-2-2222------|-0-000-0-000-|
|-------------|-0-000-0-000-|-3-3333------|-------------|
|             |             |             |             |
|-------------|-------------|-------------|-------------|
|-------0-----|-------0-----|-----0-------|-------0-----|Gtr.2
|-----2---2---|-------0-----|-----0-------|-------2-2---|
|---2-------2-|-----2-------|---0---0-0-2-|-0-2-------2-|
|-0-----------|---2---------|-------------|-0-----------|
|-------------|-0---------2-|-3-----------|-------------|
|             |             |             |             |
|-------------|-------------|-------------|-------------|
|-------------|-------------|-------------|-------------|Bass
|-2-----------|-------------|-------------|-------------|
|-------------|-2---------4-|-5-----4-----|-2-----------|

  | ^ ^ | ^ ^   | ^ ^ | ^ ^   | ^ ^ | ^ ^   | ^ ^ | ^ ^
  Asus2         Em            G     D       Asus2
|-0-000-0-000-|-0-000-0-000-|-3-33332-2222|-0-000-0-000-|
|-0-000-0-000-|-0-000-0-000-|-0-00003-3333|-0-000-0-000-|Gtr.1
|-2-222-2-222-|-0-000-0-000-|-0-00002-2222|-2-222-2-222-|
|-2-222-2-222-|-2-222-2-222-|-0-00000-0000|-2-222-2-222-|
|-0-000-0-000-|-2-222-2-222-|-2-2222------|-0-000-0-000-|
|-------------|-0-000-0-000-|-3-3333------|-------------|
|             |             |             |             |
|-------------|-------------|-------------|-------5-----|
|-------0-----|-------0-----|-------------|-----0-------|Gtr.2
|-----2---2---|-------0-----|-----0-------|-----2-------|
|---2-------2-|-----2-------|---0---4-2-0-|---2---------|
|-0-----------|---2---------|-------------|-0-----------|
|-------------|-0-------0-2-|-3-----------|-------------|
|             |             |             |             |
|-------------|-------------|-------------|-------------|
|-------------|-------------|-------------|-------------|Bass
|-2-----------|-------------|-------------|-------------|
|-------------|-2---------4-|-5-----4-----|-2-----------|

END VERSE 5

BREAK 5/6  3:45

  | ^ ^ | ^ ^   | ^ ^ | ^ ^   | ^ ^ | ^ ^   | ^ ^ | ^ ^
  Asus2         F III         D             Asus2
|-0-000-0-000-|-3-333-3-333-|-2-222-2-222-|-0-000-0-000-|
|-0-000-0-000-|-3-333-3-333-|-3-333-3-333-|-0-000-0-000-|Gtr.1
|-2-222-2-222-|-4-444-4-444-|-2-222-2-222-|-2-222-2-222-|
|-2-222-2-222-|-5-555-5-555-|-0-000-0-000-|-2-222-2-222-|
|-0-000-0-000-|-------------|-------------|-0-000-0-000-|
|-------------|-------------|-------------|-------------|
|             |             |             |             |
|-5-----5h7p5-|-0-----------|-------------|--5----------|
|-5-----5-----|-85---55---7-|-7-----875---|-5-----------|Gtr.2
|-------------|-------------|-----------7-|-------------|
|-------------|-------------|-------------|-------------|
|-------------|-------------|-------------|-------------|
|-------------|-------------|-------------|-------------|
|             |             |             |             |
|-----4-4-----|-----4-4-----|-----4-4-----|-------------|
|-------------|-------------|-------------|------24-----|Bass
|-2-----------|-2-----------|-2---------24|-2---2-------|
|-------------|-------------|-------------|-------------|

  | ^ ^ | ^ ^   | ^ ^ | ^ ^   | ^ ^ | ^ ^   | ^ ^ | ^ ^
  F III         D             Asus2
|-3-333-3-333-|-2-222-2-222-|-0-000-0-000-|-0-000-0-000-|
|-3-333-3-333-|-3-333-3-333-|-0-000-0-000-|-0-000-0-000-|Gtr.1
|-4-444-4-444-|-2-222-2-222-|-2-222-2-222-|-2-222-2-222-|
|-5-555-5-555-|-0-000-0-000-|-2-222-2-222-|-2-222-2-222-|
|-------------|-------------|-0-000-0-000-|-0-000-0-000-|
|-------------|-------------|-------------|-------------|
|             |             |             |             |
|-------------|-------5-----|-------------|-------------|
|-7-----8-7-5-|-7-------7-3-|-5-----------|(5)----------|Gtr.2
|-------------|-------------|---2---------|(2)----------|
|-------------|-------------|-------------|-------------|
|-------------|-------------|-------------|-------------|
|-------------|-------------|-------------|-------------|
|             |             |             |             |
|-----4-4-----|-----4-4-----|-----4-4-----|-----4-4-----|
|-------------|-------------|-------------|-------------|Bass
|-2-----------|-2-----------|-2-----------|-2-----------|
|-------------|-------------|-------------|-------------|

END BREAK 5/6


VERSE 6  4:00

  | ^ ^ | ^ ^   | ^ ^ | ^ ^   | ^ ^ | ^ ^   | ^ ^ | ^ ^
  Asus2         Em            G     D       Asus2
|-0-000-0-000-|-0-000-0-000-|-3-33332-2222|-0-000-0-000-|
|-0-000-0-000-|-0-000-0-000-|-0-00003-3333|-0-000-0-000-|Gtr.1
|-2-222-2-222-|-0-000-0-000-|-0-00002-2222|-2-222-2-222-|
|-2-222-2-222-|-2-222-2-222-|-0-00000-0000|-2-222-2-222-|
|-0-000-0-000-|-2-222-2-222-|-2-2222------|-0-000-0-000-|
|-------------|-0-000-0-000-|-3-3333------|-------------|
|             |             |             |             |
|-------------|-------------|-------------|-------------|
|-------0-----|-------0-----|-------------|-------------|Gtr.2
|-----2---2---|-------0-----|-----0-------|--------420--|
|---2-------2-|-----2-------|---0---0-2-0-|-2---------2-|
|-0-----------|---2---------|-------------|-------------|
|-------------|-0---------2-|-3-----------|-------------|
|             |             |             |             |
|-------------|-------------|-------------|-------------|
|-------------|-------------|-------------|-------------|Bass
|-2-----------|-------------|-------------|-------------|
|-------------|-2---------4-|-5------4----|-2-----------|

  | ^ ^ | ^ ^   | ^ ^ | ^ ^   | ^ ^ | ^ ^   | ^ ^ | ^ ^   | ^ ^ | ^ ^
  Asus2         Em            G     D       Asus2
|-0-000-0-000-|-0-000-0-000-|-3-33332-2222|-0-000-0-000-|-0-000-0-000-|
|-0-000-0-000-|-0-000-0-000-|-0-00003-3333|-0-000-0-000-|-0-000-0-000-|Gtr.1
|-2-222-2-222-|-0-000-0-000-|-0-00002-2222|-2-222-2-222-|-2-222-2-222-|
|-2-222-2-222-|-2-222-2-222-|-0-00000-0000|-2-222-2-222-|-2-222-2-222-|
|-0-000-0-000-|-2-222-2-222-|-2-2222------|-0-000-0-000-|-0-000-0-000-|
|-------------|-0-000-0-000-|-3-3333------|-------------|-------------|
|             |             |             |             |             |
|-------------|-------------|-------------|-------0-----|-5-----------|
|-------0-----|-------0-----|-------------|------0--0---|-5-----------|Gtr.2
|-----2---2---|---0---0-----|-----0-------|-----2-----2-|-------------|
|---2-------2-|-----2-------|---0---0---0-|-2-----------|-------------|
|-0-----------|-------------|-------------|-0-----------|-------------|
|-------------|-0-------0-2-|-3-----------|-------------|-----------0-|
|             |             |             |             |             |
|-------------|-------------|-------------|-------------|-------------|
|-------------|-------------|-------------|-------------|-------------|Bass
|-2-----------|-------------|-------------|---------2424|-------------|
|-------------|-2---------4-|-5-----4-----|-2-----24----|-2-----------|

  | ^ ^ | ^ ^   | ^ ^ | ^ ^   | ^ ^ | ^ ^   | ^ ^ | ^ ^
  Asus2         Em            G     D       Asus2
|-0-000-0-000-|-0-000-0-000-|-3-33332-2222|-0-000-0-000-|
|-0-000-0-000-|-0-000-0-000-|-0-00003-3333|-0-000-0-000-|Gtr.1
|-2-222-2-222-|-0-000-0-000-|-0-00002-2222|-2-222-2-222-|
|-2-222-2-222-|-2-222-2-222-|-0-00000-0000|-2-222-2-222-|
|-0-000-0-000-|-2-222-2-222-|-2-2222------|-0-000-0-000-|
|-------------|-0-000-0-000-|-3-3333------|-------------|
|             |             |             |             |
|-------------|-------------|-------------|-------------|
|-------0-----|-------0-----|-----0-------|-------0-----|Gtr.2
|-----2---2---|-------0-----|-----0-------|-------2-2---|
|---2-------2-|-----2-------|---0---0-0-2-|-0-2-------2-|
|-0-----------|---2---------|-------------|-0-----------|
|-------------|-0---------2-|-3-----------|-------------|
|             |             |             |             |
|-------------|-------------|-------------|-------------|
|-------------|-------------|-------------|-------------|Bass
|-2-----------|-------------|-------------|-------------|
|-------------|-2---------4-|-5-----4-----|-2-----------|

  | ^ ^ | ^ ^   | ^ ^ | ^ ^   | ^ ^ | ^ ^   | ^ ^ | ^ ^
  Asus2         Em            G     D       Asus2
|-0-000-0-000-|-0-000-0-000-|-3-33332-2222|-0-000-0-000-|
|-0-000-0-000-|-0-000-0-000-|-0-00003-3333|-0-000-0-000-|Gtr.1
|-2-222-2-222-|-0-000-0-000-|-0-00002-2222|-2-222-2-222-|
|-2-222-2-222-|-2-222-2-222-|-0-00000-0000|-2-222-2-222-|
|-0-000-0-000-|-2-222-2-222-|-2-2222------|-0-000-0-000-|
|-------------|-0-000-0-000-|-3-3333------|-------------|
|             |             |             |             |
|-------------|-------------|-------------|-------5-----|
|-------0-----|-------0-----|-------------|-----0-------|Gtr.2
|-----2---2---|-------0-----|-----0-------|-----2-------|
|---2-------2-|-----2-------|---0---4-2-0-|---2---------|
|-0-----------|---2---------|-------------|-0-----------|
|-------------|-0-------0-2-|-3-----------|-------------|
|             |             |             |             |
|-------------|-------------|-------------|-------------|
|-------------|-------------|-------------|-------------|Bass
|-2-----------|-------------|-------------|-------------|
|-------------|-2---------4-|-5-----4-----|-2-----------|

END VERSE 6


BREAK 6/7  4:31

  | ^ ^ | ^ ^   | ^ ^ | ^ ^   | ^ ^ | ^ ^   | ^ ^ | ^ ^
  Asus2         F III         D             Asus2
|-0-000-0-000-|-3-333-3-333-|-2-222-2-222-|-0-000-0-000-|
|-0-000-0-000-|-3-333-3-333-|-3-333-3-333-|-0-000-0-000-|Gtr.1
|-2-222-2-222-|-4-444-4-444-|-2-222-2-222-|-2-222-2-222-|
|-2-222-2-222-|-5-555-5-555-|-0-000-0-000-|-2-222-2-222-|
|-0-000-0-000-|-------------|-------------|-0-000-0-000-|
|-------------|-------------|-------------|-------------|
|             |             |             |             |
|-5-----5h7p5-|-0-----------|-------------|--5----------|
|-5-----5-----|-85---55---7-|-7-----875---|-5-----------|Gtr.2
|-------------|-------------|-----------7-|-------------|
|-------------|-------------|-------------|-------------|
|-------------|-------------|-------------|-------------|
|-------------|-------------|-------------|-------------|
|             |             |             |             |
|-----4-4-----|-----4-4-----|-----4-4-----|-------------|
|-------------|-------------|-------------|------24-----|Bass
|-2-----------|-2-----------|-2---------24|-2---2-------|
|-------------|-------------|-------------|-------------|

  | ^ ^ | ^ ^   | ^ ^ | ^ ^   | ^ ^ | ^ ^   | ^ ^ | ^ ^
  F III         D             Asus2
|-3-333-3-333-|-2-222-2-222-|-0-000-0-000-|-0-000-0-000-|
|-3-333-3-333-|-3-333-3-333-|-0-000-0-000-|-0-000-0-000-|Gtr.1
|-4-444-4-444-|-2-222-2-222-|-2-222-2-222-|-2-222-2-222-|
|-5-555-5-555-|-0-000-0-000-|-2-222-2-222-|-2-222-2-222-|
|-------------|-------------|-0-000-0-000-|-0-000-0-000-|
|-------------|-------------|-------------|-------------|
|             |             |             |             |
|-------------|-------5-----|-------------|-------------|
|-7-----8-7-5-|-7-------7-3-|-5-----------|-------------|Gtr.2
|-------------|-------------|---2-0-------|-------------|
|-------------|-------------|------20-20--|-------------|
|-------------|-------------|-----------0-|-------------|
|-------------|-------------|-------------|-------------|
|             |             |             |             |
|-----4-4-----|-----4-4-----|-----4-4-----|-----4-4-----|
|-------------|-------------|-------------|-------------|Bass
|-2-----------|-2-----------|-2-----------|-2-----------|
|-------------|-------------|-------------|-------------|

  | ^ ^ | ^ ^   | ^ ^ | ^ ^   | ^ ^ | ^ ^   | ^ ^ | ^ ^
  Asus2         F III         D             Asus2
|-0-000-0-000-|-3-333-3-333-|-2-222-2-222-|-0-000-0-000-|
|-0-000-0-000-|-3-333-3-333-|-3-333-3-333-|-0-000-0-000-|Gtr.1
|-2-222-2-222-|-4-444-4-444-|-2-222-2-222-|-2-222-2-222-|
|-2-222-2-222-|-5-555-5-555-|-0-000-0-000-|-2-222-2-222-|
|-0-000-0-000-|-------------|-------------|-0-000-0-000-|
|-------------|-------------|-------------|-------------|
|             |             |             |             |
|-5-----5h7p5-|-0-----------|-------------|--5----------|
|-5-----5-----|-85---55---7-|-7-----875---|-5-----------|Gtr.2
|-------------|-------------|-----------7-|-------------|
|-------------|-------------|-------------|-------------|
|-------------|-------------|-------------|-------------|
|-------------|-------------|-------------|-------------|
|             |             |             |             |
|-----4-4-----|-----4-4-----|-----4-4-----|-------------|
|-------------|-------------|-------------|------24-----|Bass
|-2-----------|-2-----------|-2---------24|-2---2-------|
|-------------|-------------|-------------|-------------|

  | ^ ^ | ^ ^   | ^ ^ | ^ ^   | ^ ^ | ^ ^   | ^ ^ | ^ ^
  F III         D             Asus2
|-3-333-3-333-|-2-222-2-222-|-0-000-0-000-|-0-000-0-000-|
|-3-333-3-333-|-3-333-3-333-|-0-000-0-000-|-0-000-0-000-|Gtr.1
|-4-444-4-444-|-2-222-2-222-|-2-222-2-222-|-2-222-2-222-|
|-5-555-5-555-|-0-000-0-000-|-2-222-2-222-|-2-222-2-222-|
|-------------|-------------|-0-000-0-000-|-0-000-0-000-|
|-------------|-------------|-------------|-------------|
|             |             |             |             |
|-------------|-------5-----|-------------|-------------|
|-7-----8-7-5-|-7-------7-3-|-5-----------|(5)----------|Gtr.2
|-------------|-------------|---2---------|(2)----------|
|-------------|-------------|-------------|-------------|
|-------------|-------------|-------------|-------------|
|-------------|-------------|-------------|-------------|
|             |             |             |             |
|-----4-4-----|-----4-4-----|-----4-4-----|-----4-4-----|
|-------------|-------------|-------------|-------------|Bass
|-2-----------|-2-----------|-2-----------|-2-----------|
|-------------|-------------|-------------|-------------|

END BREAK 6/7


VERSE 7  5:02

  | ^ ^ | ^ ^   | ^ ^ | ^ ^
  Asus2
|-0-000-0-000-|-0-000-0-000-|
|-0-000-0-000-|-0-000-0-000-|Gtr.1
|-2-222-2-222-|-2-222-2-222-|
|-2-222-2-222-|-2-222-2-222-|
|-0-000-0-000-|-0-000-0-000-|
|-------------|-------------|
|             |             |
|-------------|-------------|
|-------0-----|-------0-----|Gtr.2
|-----2---2---|-----2---2---|
|---2-------2-|---2-------2-|
|-0-----------|-0-----------|
|-------------|-------------|
|             |             |
|-4-----------|-------------|
|-------------|-------------|Bass
|-----------24|-2-----------|
|-------------|-------------|

  | ^ ^ | ^ ^   | ^ ^ | ^ ^   | ^ ^ | ^ ^   | ^ ^ | ^ ^   | ^ ^ | ^ ^
  Asus2         Em            G     D       Asus2
|-0-000-0-000-|-0-000-0-000-|-3-33332-2222|-0-000-0-000-|-0-000-0-000-|
|-0-000-0-000-|-0-000-0-000-|-0-00003-3333|-0-000-0-000-|-0-000-0-000-|Gtr.1
|-2-222-2-222-|-0-000-0-000-|-0-00002-2222|-2-222-2-222-|-2-222-2-222-|
|-2-222-2-222-|-2-222-2-222-|-0-00000-0000|-2-222-2-222-|-2-222-2-222-|
|-0-000-0-000-|-2-222-2-222-|-2-2222------|-0-000-0-000-|-0-000-0-000-|
|-------------|-0-000-0-000-|-3-3333------|-------------|-------------|
|             |             |             |             |             |
|-------------|-------------|-------------|-------------|-0-----------|
|-------0-----|-------0-----|-------------|-------0-----|---0---0-----|Gtr.2
|-----2---2---|-------0-----|-----0-------|-------2-2---|---------2---|
|---2-------2-|-----2-------|---0---0-2-0-|-2-----2---2-|-----2-----2-|
|-0-----------|---2---------|-------------|-------------|-----------0-|
|-------------|-0---------2-|-3-----------|-------------|-------------|
|             |             |             |             |             |
|-------------|-------------|-------------|-------------|-------------|
|-------------|-------------|-------------|-------------|-------------|Bass
|-2-----------|-------------|-------------|-------------|-2-----------|
|-------------|-2---------4-|-5------4----|-2-----------|-------------|

  | ^ ^ | ^ ^   | ^ ^ | ^ ^   | ^ ^ | ^ ^   | ^ ^ | ^ ^   | ^ ^ | ^ ^
  Asus2         Em            G     D       Asus2
|-0-000-0-000-|-0-000-0-000-|-3-33332-2222|-0-000-0-000-|-0-000-0-000-|
|-0-000-0-000-|-0-000-0-000-|-0-00003-3333|-0-000-0-000-|-0-000-0-000-|Gtr.1
|-2-222-2-222-|-0-000-0-000-|-0-00002-2222|-2-222-2-222-|-2-222-2-222-|
|-2-222-2-222-|-2-222-2-222-|-0-00000-0000|-2-222-2-222-|-2-222-2-222-|
|-0-000-0-000-|-2-222-2-222-|-2-2222------|-0-000-0-000-|-0-000-0-000-|
|-------------|-0-000-0-000-|-3-3333------|-------------|-------------|
|             |             |             |             |             |
|-------------|-------------|-------------|-------0-----|-------------|
|-------0-----|-------0-----|-------------|------0--0---|-------0-----|Gtr.2
|-----2---2---|---0---0-----|-----0-------|-----2-----2-|-----2---2---|
|---2-------2-|-----2-------|---0---0---0-|-2-----------|---2-------2-|
|-0-----------|-------------|-------------|-0-----------|-0-----------|
|-------------|-0-------0-2-|-3-----------|-------------|-------------|
|             |             |             |             |             |
|-------------|-------------|-------------|-------------|-------------|
|-------------|-------------|-------------|-------------|-------------|Bass
|-2-----------|-------------|-------------|---------2424|-------------|
|-------------|-2---------4-|-5-----4-----|-2-----24----|-2-----------|

  | ^ ^ | ^ ^   | ^ ^ | ^ ^   | ^ ^ | ^ ^   | ^ ^ | ^ ^   | ^ ^ | ^ ^
  Asus2         Em            G     D       Asus2
|-0-000-0-000-|-0-000-0-000-|-3-33332-2222|-0-000-0-000-|-0-000-0-000-|
|-0-000-0-000-|-0-000-0-000-|-0-00003-3333|-0-000-0-000-|-0-000-0-000-|Gtr.1
|-2-222-2-222-|-0-000-0-000-|-0-00002-2222|-2-222-2-222-|-2-222-2-222-|
|-2-222-2-222-|-2-222-2-222-|-0-00000-0000|-2-222-2-222-|-2-222-2-222-|
|-0-000-0-000-|-2-222-2-222-|-2-2222------|-0-000-0-000-|-0-000-0-000-|
|-------------|-0-000-0-000-|-3-3333------|-------------|-------------|
|             |             |             |             |             |
|-------------|-------------|-------------|-------------|-0-----------|
|-------0-----|-------0-----|-----0-------|-------0-----|---0---0-----|Gtr.2
|-----2---2---|-------0-----|-----0-------|-------2-2---|---------2---|
|---2-------2-|-----2-------|---0---0-0-2-|-0-2-------2-|-----2-----2-|
|-0-----------|---2---------|-------------|-0-----------|-------------|
|-------------|-0---------2-|-3-----------|-------------|-------------|
|             |             |             |             |             |
|-------------|-------------|-------------|-------------|-------------|
|-------------|-------------|-------------|-------------|-------------|Bass
|-2-----------|-------------|-------------|-------------|-2-----------|
|-------------|-2---------4-|-5-----4-----|-2-----------|-------------|

  | ^ ^ | ^ ^   | ^ ^ | ^ ^   | ^ ^ | ^ ^   | ^ ^ | ^ ^
  Asus2         Em            G     D       Asus2
|-0-000-0-000-|-0-000-0-000-|-3-33332-2222|-0-000-0-000-|
|-0-000-0-000-|-0-000-0-000-|-0-00003-3333|-0-000-0-000-|Gtr.1
|-2-222-2-222-|-0-000-0-000-|-0-00002-2222|-2-222-2-222-|
|-2-222-2-222-|-2-222-2-222-|-0-00000-0000|-2-222-2-222-|
|-0-000-0-000-|-2-222-2-222-|-2-2222------|-0-000-0-000-|
|-------------|-0-000-0-000-|-3-3333------|-------------|
|             |             |             |             |
|-------------|-------------|-------------|-------5-----|
|-------0-----|-------0-----|-------------|-----0-------|Gtr.2
|-----2---2---|-------0-----|-----0-------|-----2-------|
|---2-------2-|-----2-------|---0---4-2-0-|---2---------|
|-0-----------|---2---------|-------------|-0-----------|
|-------------|-0-------0-2-|-3-----------|-------------|
|             |             |             |             |
|-------------|-------------|-------------|-------------|
|-------------|-------------|-------------|-------------|Bass
|-2-----------|-------------|-------------|-------------|
|-------------|-2---------4-|-5-----4-----|-2-----------|

END VERSE 7


OUTRO

  | ^ ^ | ^ ^   | ^ ^ | ^ ^   | ^ ^ | ^ ^   | ^ ^ | ^ ^
  Asus2         F III         D             Asus2
|-0-000-0-000-|-3-333-3-333-|-2-222-2-222-|-0-000-0-000-|
|-0-000-0-000-|-3-333-3-333-|-3-333-3-333-|-0-000-0-000-|Gtr.1
|-2-222-2-222-|-4-444-4-444-|-2-222-2-222-|-2-222-2-222-|
|-2-222-2-222-|-5-555-5-555-|-0-000-0-000-|-2-222-2-222-|
|-0-000-0-000-|-------------|-------------|-0-000-0-000-|
|-------------|-------------|-------------|-------------|
|             |             |             |             |
|-5-----5h7p5-|-0-----------|-------------|--5----------|
|-5-----5-----|-85---55---7-|-7-----875---|-5-----------|Gtr.2
|-------------|-------------|-----------7-|-------------|
|-------------|-------------|-------------|-------------|
|-------------|-------------|-------------|-------------|
|-------------|-------------|-------------|-------------|
|             |             |             |             |
|-----4-4-----|-----4-4-----|-----4-4-----|-------------|
|-------------|-------------|-------------|------24-----|Bass
|-2-----------|-2-----------|-2---------24|-2---2-------|
|-------------|-------------|-------------|-------------|

  | ^ ^ | ^ ^   | ^ ^ | ^ ^   | ^ ^ | ^ ^   | ^ ^ | ^ ^
  F III         D             Asus2
|-3-333-3-333-|-2-222-2-222-|-0-000-0-000-|-0-000-0-000-|
|-3-333-3-333-|-3-333-3-333-|-0-000-0-000-|-0-000-0-000-|Gtr.1
|-4-444-4-444-|-2-222-2-222-|-2-222-2-222-|-2-222-2-222-|
|-5-555-5-555-|-0-000-0-000-|-2-222-2-222-|-2-222-2-222-|
|-------------|-------------|-0-000-0-000-|-0-000-0-000-|
|-------------|-------------|-------------|-------------|
|             |             |             |             |
|-------------|-------5-----|-------------|-------------|
|-7-----8-7-5-|-7-------7-3-|-5-----------|-------------|Gtr.2
|-------------|-------------|---2-0-------|-------------|
|-------------|-------------|------20-20--|-------------|
|-------------|-------------|-----------0-|-------------|
|-------------|-------------|-------------|-------------|
|             |             |             |             |
|-----4-4-----|-----4-4-----|-----4-4-----|-----4-4-----|
|-------------|-------------|-------------|-------------|Bass
|-2-----------|-2-----------|-2-----------|-2-----------|
|-------------|-------------|-------------|-------------|

  | ^ ^ | ^ ^   | ^ ^ | ^ ^   | ^ ^ | ^ ^   | ^ ^ | ^ ^
  Asus2         F III         D             Asus2
|-0-000-0-000-|-3-333-3-333-|-2-222-2-222-|-0-000-0-000-|
|-0-000-0-000-|-3-333-3-333-|-3-333-3-333-|-0-000-0-000-|Gtr.1
|-2-222-2-222-|-4-444-4-444-|-2-222-2-222-|-2-222-2-222-|
|-2-222-2-222-|-5-555-5-555-|-0-000-0-000-|-2-222-2-222-|
|-0-000-0-000-|-------------|-------------|-0-000-0-000-|
|-------------|-------------|-------------|-------------|
|             |             |             |             |
|-5-----5h7p5-|-0-----------|-------------|--5----------|
|-5-----5-----|-85---55---7-|-7-----875---|-5-----------|Gtr.2
|-------------|-------------|-----------7-|-------------|
|-------------|-------------|-------------|-------------|
|-------------|-------------|-------------|-------------|
|-------------|-------------|-------------|-------------|
|             |             |             |             |
|-----4-4-----|-----4-4-----|-----4-4-----|-------------|
|-------------|-------------|-------------|------24-----|Bass
|-2-----------|-2-----------|-2---------24|-2---2-------|
|-------------|-------------|-------------|-------------|

  | ^ ^ | ^ ^   | ^ ^ | ^ ^   | ^ ^ | ^ ^   | ^ ^ | ^ ^
  F III         D             Asus2
|-3-333-3-333-|-2-222-2-222-|-0-000-0-000-|-0-----------|
|-3-333-3-333-|-3-333-3-333-|-0-000-0-000-|-0-----------|Gtr.1
|-4-444-4-444-|-2-222-2-222-|-2-222-2-222-|-2-----------|
|-5-555-5-555-|-0-000-0-000-|-2-222-2-222-|-2-----------|
|-------------|-------------|-0-000-0-000-|-0-----------|
|-------------|-------------|-------------|-------------|
|             |             |             |             |
|-------------|-------5-----|---5---------|(5)----------|
|-7-----8-7-5-|-7-------7-3-|-5-----------|-------------|Gtr.2
|-------------|-------------|-------------|-------------|
|-------------|-------------|-------------|-------------|
|-------------|-------------|-------------|-------------|
|-------------|-------------|-------------|-------------|
|             |             |             |             |
|-----4-4-----|-----4-4-----|-----4-4-----|-------------|
|-------------|-------------|-------------|-------------|Bass
|-2-----------|-2-----------|-2-----------|-2-----------|
|-------------|-------------|-------------|-------------|

END OUTRO

            
            
Suggest correction
Creating personal tab
Creating personal tab
You can edit any tab online and save it as your Personal.

You can edit, replace or remove any tab part or add personal notes – all changes will be seen only by you.

Personal tabs can be accessed anytime from any device, even offline.
Learn more »
comments
print report bad tab
1 comment total.
0 reply
ThorChicken 1,608 Aug 21, 2015 03:02 PM

Seriously, I don't understand how this is not rated way up. Sure, there are some mistakes here and there, but you obviously spent a lot of time on it. Well done bro!

guest
Wanna post a correction for this tab? Suggest correction