Oops, an error
Loading. Please wait.

Exorcism tab

46 views 1 this week
no commentswrite comment
1 2 3 4 5
3 more votes to show rating
add to favorites
×
Save as Personal and add changes to this tab that will be seen only by you. Learn more ›
×
You can save this tab as Personal to edit and correct it or add notes. All changes will be seen only by you. Learn more »
launch autoscroll
font size
0
reset
how to read this tab
guitar tuner
edit
Autoscroll
slow
fast
+/-
esc
set tempo
stop
[Intro]
B|------------------|
G|------------------|
D|------------------|
A|-[DRUMS]----------|
E|-------------3--3-|
B|-------------1--1-|
PM             .  .  

[Pre-Verse]
B|------------------|------------------|------------------|------------------------|
G|------------------|------------------|------------------|------------------------|
D|------------------|------------------|------------------|------------------------|
A|------------------|------------------|------------------|------------------------|
E|-2----------------|-----3----3/6-5---|-----3----3/6-5---|-----3----2--------\----|
B|-0----------------|-0-0-1--0-1/4-3---|-0-0-1--0-1/4-3---|-0-0-1--0-0--------\----|
PM                    . .    .           . .    .           . .    .

B|------------------|------------------|------------------|------------------------|
G|------------------|------------------|------------------|------------------------|
D|------------------|------------------|------------------|------------------------|
A|------------------|------------------|------------------|------------------------|
E|-2----------------|-----3----3/6-5---|-----3----3/6-5---|-----3----2-------------|
B|-0----------------|-0-0-1--0-1/4-3---|-0-0-1--0-1/4-3---|-0-0-1--0-0--4br-3-4-3~-|
PM                    . .    .           . .    .           . .    .

[Verse]
B|----------------------------------|--------------------------------|
G|----------------------------------|--------------------------------|
D|----------------------------------|--------------------------------|
A|-----------------------------8~7~-|---------------------------8~7~-| 
E|-2--2-2-2-2-2-2-2-2-2-2-3---------|-2-2-2-2-2-2-2-2-2-2--3---------|
B|-0--0-0-0-0-0-0-0-0-0-0-1-0-------|-0-0-0-0-0-0-0-0-0-0--1-0-------|
PM    . . . . . . . . . .   .         . . . . . . . . . .    .

B|-------------------------------|---------------------------------|
G|-------------------------------|---------------------------------|
D|-------------------------------|---------------------------------|
A|--------------------------8~7~-|---------------------------------| 
E|-2-2-2-2-2-2-2-2-2-2-3---------|-2-2-2-2-2-2-2-2-2-2--3---3/6-5--|
B|-0-0-0-0-0-0-0-0-0-0-1-0-------|-0-0-0-0-0-0-0-0-0-0--1-0-1/4-3--|
PM . . . . . . . . . .   .         . . . . . . . . . .    .

B|-------------------------------|--------------------------------|
G|-------------------------------|--------------------------------|
D|-------------------------------|--------------------------------|
A|--------------------------8~7~-|---------------------------8~7~-| 
E|-2-2-2-2-2-2-2-2-2-2-3---------|-2-2-2-2-2-2-2-2-2-2--3---------|
B|-0-0-0-0-0-0-0-0-0-0-1-0-------|-0-0-0-0-0-0-0-0-0-0--1-0-------|
PM . . . . . . . . . .   .         . . . . . . . . . .    .

B|-------------------------------|-----------------------------|
G|-------------------------------|-----------------------------|
D|-------------------------------|-----------------------------|
A|--------------------------8~7~-|-----------------------------| 
E|-2-2-2-2-2-2-2-2-2-2-3---------|-2-2-2-2-2-2-2-2-2-2--3------|
B|-0-0-0-0-0-0-0-0-0-0-1-0-------|-0-0-0-0-0-0-0-0-0-0--1-0-0--|
PM . . . . . . . . . .   .         . . . . . . . . . .    . .

[Chorus]
B|-------------------|-------------------|-------------------|--------------------|
G|-------------------|-------------------|-------------------|--------------------|
D|-------------------|-------------------|-------------------|--------------------|
A|-6----9-8----3-----|-6----9-8----4-----|-6----9-8----3-----|-6----9-8----4------|
E|-6----9-8----3-----|-6----9-8----4-----|-6----9-8----3-----|-6----9-8----4--4-3-|
B|-4----7-6----1-----|-4----7-6----2-----|-4----7-6----1-----|-4----7-6----2--2-1-|
PM                                                                            . .

[Pre-Verse]
B|------------------|-------------------|------------------|------------------|
G|------------------|-------------------|------------------|------------------|
D|------------------|-------------------|------------------|------------------|
A|------------------|-------------------|------------------|------------------|
E|-2----------------|-----3----3/6-5----|-----3----3/6-5---|-----3----2----\--|
B|-0----------------|-0-0-1--0-1/4-3----|-0-0-1--0-1/4-3---|-0-0-1--0-0----\--|
PM                    . .    .            . .    .           . .    .

B|------------------|-------------------|------------------|----------------------|
G|------------------|-------------------|------------------|----------------------|
D|------------------|-------------------|------------------|----------------------|
A|------------------|-------------------|------------------|----------------------|
E|-2----------------|-----3----3/6-5----|-----3----3/6-5---|-----3----2-----ph-ph-|
B|-0----------------|-0-0-1--0-1/4-3----|-0-0-1--0-1/4-3---|-0-0-1--0-0--0-0-4-3~-|
PM                    . .    .            . .    .           . .    .    . .

[Verse]
B|----------------------------------|--------------------------------|
G|----------------------------------|--------------------------------|
D|----------------------------------|--------------------------------|
A|-----------------------------8~7~-|---------------------------8~7~-| 
E|-2--2-2-2-2-2-2-2-2-2-2-3---------|-2-2-2-2-2-2-2-2-2-2--3---------|
B|-0--0-0-0-0-0-0-0-0-0-0-1-0-------|-0-0-0-0-0-0-0-0-0-0--1-0-------|
PM    . . . . . . . . . .   .         . . . . . . . . . .    .

B|-------------------------------|---------------------------------|
G|-------------------------------|---------------------------------|
D|-------------------------------|---------------------------------|
A|--------------------------8~7~-|---------------------------------| 
E|-2-2-2-2-2-2-2-2-2-2-3---------|-2-2-2-2-2-2-2-2-2-2--3---3/6-5--|
B|-0-0-0-0-0-0-0-0-0-0-1-0-------|-0-0-0-0-0-0-0-0-0-0--1-0-1/4-3--|
PM . . . . . . . . . .   .         . . . . . . . . . .    .

B|-------------------------------|--------------------------------|
G|-------------------------------|--------------------------------|
D|-------------------------------|--------------------------------|
A|--------------------------8~7~-|---------------------------8~7~-| 
E|-2-2-2-2-2-2-2-2-2-2-3---------|-2-2-2-2-2-2-2-2-2-2--3---------|
B|-0-0-0-0-0-0-0-0-0-0-1-0-------|-0-0-0-0-0-0-0-0-0-0--1-0-------|
PM . . . . . . . . . .   .         . . . . . . . . . .    .

B|-------------------------------|-----------------------------|
G|-------------------------------|-----------------------------|
D|-------------------------------|-----------------------------|
A|--------------------------8~7~-|-----------------------------| 
E|-2-2-2-2-2-2-2-2-2-2-3---------|-2-2-2-2-2-2-2-2-2-2--3------|
B|-0-0-0-0-0-0-0-0-0-0-1-0-------|-0-0-0-0-0-0-0-0-0-0--1-0-0--|
PM . . . . . . . . . .   .         . . . . . . . . . .    . .

[Chorus]
B|-------------------|-------------------|-------------------|-------------------|
G|-------------------|-------------------|-------------------|-------------------|
D|-------------------|-------------------|-------------------|-------------------|
A|-6----9-8----3-----|-6----9-8----4-----|-6----9-8----3-----|-6----9-8----4-----|
E|-6----9-8----3-----|-6----9-8----4-----|-6----9-8----3-----|-6----9-8----4-----|
B|-4----7-6----1-----|-4----7-6----2-----|-4----7-6----1-----|-4----7-6----2-----|

[Interlude]
B|-------------------|-------------------|
G|-------------------|-------------------|
D|-------------------|-------------------|
A|-------------------|-------------------|
E|-----3------2------|-----3------2------|
B|-3-4---3--3---3-2--|-3-4---3--3---3-2--|

B|----------------------------------|----------------------------------|
G|----------------------------------|----------------------------------|
D|----------------------------------|----------------------------------|
A|----------------------------------|----------------------------------|
E|-----3----------------------------|---2------------------------------|
B|-3-4---3--3-3-3-3-3-3-3-3-3-3-3-3-|-3---3-2--2-2-2-2-2-2-2-2-2-2-2-2-|
PM          . . . . . . . . . . . .            . . . . . . . . . . . .

B|----------------------------------|----------------------------------|
G|----------------------------------|----------------------------------|
D|----------------------------------|----------------------------------|
A|----------------------------------|----------------------------------|
E|-----3----------------------------|---2------------------------------|
B|-3-4---3--3-3-3-3-3-3-3-3-3-3-3-3-|-3---3-2--2-2-2-2-2-2-2-2-2-2-2-2-|
PM          . . . . . . . . . . . .            . . . . . . . . . . . .

[Under solo 1]
B|----------------------------------|----------------------------------|
G|----------------------------------|----------------------------------|
D|----------------------------------|----------------------------------|
A|----------------------------------|----------------------------------|
E|-----3----------------------------|---2------------------------------|
B|-3-4---3--3-3-3-3-3-3-3-3-3-3-3-3-|-3---3-2--2-2-2-2-2-2-2-2-2-2-2-2-|
PM          . . . . . . . . . . . .            . . . . . . . . . . . .

B|----------------------------------|----------------------------------|
G|----------------------------------|----------------------------------|
D|----------------------------------|----------------------------------|
A|----------------------------------|----------------------------------|
E|-----3----------------------------|---2------------------------------|
B|-3-4---3--3-3-3-3-3-3-3-3-3-3-3-3-|-3---3-2--2-2-2-2-2-2-2-2-2-2-2-2-|
PM          . . . . . . . . . . . .            . . . . . . . . . . . .

B|----------------------------------|----------------------------------|
G|----------------------------------|----------------------------------|
D|----------------------------------|----------------------------------|
A|----------------------------------|----------------------------------|
E|-----3----------------------------|---2------------------------------|
B|-3-4---3--3-3-3-3-3-3-3-3-3-3-3-3-|-3---3-2--2-2-2-2-2-2-2-2-2-2-2-2-|
PM          . . . . . . . . . . . .            . . . . . . . . . . . .

B|----------------------------------|----------------------------------|
G|----------------------------------|----------------------------------|
D|----------------------------------|----------------------------------|
A|----------------------------------|----------------------------------|
E|-----3----------------------------|---2------------------------------|
B|-3-4---3--3-3-3-3-3-3-3-3-3-3-3-3-|-3---3-2--2-2-2-2-2-2-2-2-2-2-2-2-|
PM          . . . . . . . . . . . .            . . . . . . . . . . . .

B|------------------|---------------------------|
G|------------------|---------------------------|
D|------------------|---------------------------|
A|------------------|----------------------4--3-|
E|-----3------2-----|-----3------2---------4--3-|
B|-3-4---3--3---3-2-|-3-4---3--3---3-2-----2--1-|
PM                                        .  .

[Under solo 2]
B|------------------|-------------------|------------------|------------------|
G|------------------|-------------------|------------------|------------------|
D|------------------|-------------------|------------------|------------------|
A|------------------|-------------------|------------------|------------------|
E|-2----------------|-----3----3/6-5----|-----3----3/6-5---|-----3----2----\--|
B|-0----------------|-0-0-1--0-1/4-3----|-0-0-1--0-1/4-3---|-0-0-1--0-0----\--|
PM                    . .    .            . .    .           . .    .

B|------------------|-------------------|------------------|------------|
G|------------------|-------------------|------------------|------------|
D|------------------|-------------------|------------------|------------|
A|------------------|-------------------|------------------|------------|
E|-2----------------|-----3----3/6-5----|-----3----3/6-5---|-----3----2-|
B|-0----------------|-0-0-1--0-1/4-3----|-0-0-1--0-1/4-3---|-0-0-1--0-0-|
PM                    . .    .            . .    .           . .    . .


************************************

| PM  Palm mute
| /   Slide up
| \   Slide down
| br  Bend release
| ~   Vibrato

************************************
Suggest correction
Creating personal tab
Creating personal tab
You can edit any tab online and save it as your Personal.

You can edit, replace or remove any tab part or add personal notes – all changes will be seen only by you.

Personal tabs can be accessed anytime from any device, even offline.
Learn more »
Give kudos to tab author, rate the tab!
1 2 3 4 5
comments
print report bad tab
guest
You may want to rate the tab now too:
select rating
Wanna post a correction for this tab? Suggest correction