Oops, an error
Loading. Please wait.

Get-A-Life tab

82 views 1 this week
no commentswrite comment
1 2 3 4 5
2 more votes to show rating
add to favorites
×
Save as Personal and add changes to this tab that will be seen only by you. Learn more ›
×
You can save this tab as Personal to edit and correct it or add notes. All changes will be seen only by you. Learn more »
launch autoscroll
font size
0
reset
how to read this tab
guitar tuner
edit
Autoscroll
slow
fast
+/-
esc
set tempo
stop
GOREFEST
album: "False" 1992
song: Get-A-Life

***************************************************

[Intro] 0:06
B|--------(0)--(0)----------|--------(0)--------------|--------(0)--(0)----------|--------(0)--------------|
G|--------(0)--(0)----------|--------(0)--------------|--------(0)--(0)----------|--------(0)--------------|
D|---------2----2-----------|---------2---(0)---------|---------2----2-----------|---------2---(0)---------|
A|---------2----2-----------|---------2----2----------|---------2----2-----------|---------2----2----------|
E|-2-------0----0-----------|-2-------0----2----------|-2-------0----0-----------|-2-------0----2----------|
B|-0-0-0-0----0-------------|-0-0-0-0----0-0----------|-0-0-0-0----0-------------|-0-0-0-0----0-0----------|
pm . . . .    .               . . . .    .              . . . .    .               . . . .    .
  

B|--------(0)--(0)--3-------|--------(0)--------------|---------(0)-(0)--3-------|--------(0)--------------|
G|--------(0)--(0)----1-----|--------(0)--------------|---------(0)-(0)----1-----|--------(0)--------------|
D|---------2----2-------2---|---------2---(0)---------|----------2---2-------2---|---------2---(0)---------|
A|---------2----2---------2-|---------2----2----------|----------2---2---------2-|---------2----2----------|
E|-2-------0----0-----------|-2-------0----2----------|-2--------0---0-----------|-2-------0----2----------|
B|-0-0-0-0----0-------------|-0-0-0-0----0-0----------|-0-0-0-0----0-------------|-0-0-0-0----0-0----------|
pm . . . .    .               . . . .    .              . . . .    .               . . . .    . 
 
[Fill] 0:50
B|---------------------------|-------------------------|--------------------------|--------------------------|
G|---------------------------|-------------------------|--------------------------|--------------------------|
D|---------------------------|-------------------------|--------------------------|--------------------------|
A|---------------------------|-------------------------|--------------------------|--------------------------|
E|---------------------------|-------------------------|--------------------------|--------------------------|
B|/-0--0-0--0-1-0--0-0--0--0-|-4--4-4-4-3--3-3-3--3--3-|-0--0-0--0-1-0--0-0--0--0-|-3--3-3-3-4--4-4-4--4--4--|

B|--------------------------|-------------------------|--------------------------|--------------------------|
G|--------------------------|-------------------------|--------------------------|--------------------------|
D|--------------------------|-------------------------|--------------------------|--------------------------|
A|--------------------------|-------------------------|--------------------------|--------------------------|
E|--------------------------|-------------------------|--------------------------|--------------------------|
B|-0--0-0--0-1-0--0-0--0--0-|-4--4-4-4-3--3-3-3--3--3-|-0--0-0--0-1-0--0-0--0--0-|-3--3-3-3-4--4-4-4--4--4--|

[Verse] 1:04
B|--------------------------|-------------------------|--------------------------|--------------------------|
G|--------------------------|-------------------------|--------------------------|--------------------------|
D|--------------------------|-------------------------|--------------------------|--------------------------|
A|--------------------------|-------------------------|--------------------------|--------------------------|
E|--------------------------|-------------------------|--------------------------|--------------------------|
B|-0--0-0--0-1-0--0-0--0--0-|-4--4-4-4-3--3-3-3--3--3-|-0--0-0--0-1-0--0-0--0--0-|-3--3-3-3-4--4-4-4--4--4--|

B|--------------------------|-------------------------|--------------------------|--------------------------|
G|--------------------------|-------------------------|--------------------------|--------------------------|
D|--------------------------|-------------------------|--------------------------|--------------------------|
A|--------------------------|-------------------------|--------------------------|--------------------------|
E|--------------------------|-------------------------|--------------------------|--------------------------|
B|-0--0-0--0-1-0--0-0--0--0-|-4--4-4-4-3--3-3-3--3--3-|-0--0-0--0-1-0--0-0--0--0-|-3--3-3-3-4--4-4-4--4--4--|

B|--------------------------|-------------------- ----|--------------------------|-------------------|
G|--------------------------|-------------------------|--------------------------|-------------------|
D|--------------------------|-------------------------|--------------------------|-------------------|
A|--------------------------|----0--------------------|--------------------------|-4-4-4--5--5-5-5---|
E|--------------------------|-2------2--0--3--0-------|--------------------------|-2-2-2--3--3-3-3---|
B|-0--0-0--0-1-0--0-0--0--0-|-------------------------|-0--0-0--0-1-0--0-0--0--0-|-------------------|

B|--------------------------|-------------------- ----|--------------------------|-------------------|
G|--------------------------|-------------------------|--------------------------|-------------------|
D|--------------------------|-------------------------|--------------------------|-------------------|
A|--------------------------|----0--------------------|--------------------------|-4-4-4--5--5-5-5---|
E|--------------------------|-2------2--0--3--0-------|--------------------------|-2-2-2--3--3-3-3---|
B|-0--0-0--0-1-0--0-0--0--0-|-------------------------|-0--0-0--0-1-0--0-0--0--0-|-------------------|

[Chorus] 1:30
B|-----------------------------------------|-----------------------------------------|
G|-----------------------------------------|-----------------------------------------|
D|-------10-------9--------6-------10~-----|-------10-------9--------6-------10~-----|
A|-------10-------9--------6-------10~-----|-------10-------9--------6-------10~-----|
E|-------8--------7--------4-------8~------|-------8--------7--------4-------8~------|
B|-0-0-0----0-0-0----0-0-0---0-0-0---------|-0-0-0----0-0-0----0-0-0---0-0-0---------|

B|-----------------------------------------|-----------------------------------------|
G|-----------------------------------------|-----------------------------------------|
D|-------10-------9--------6-------10~-----|-------10-------9--------6-------10~-----|
A|-------10-------9--------6-------10~-----|-------10-------9--------6-------10~-----|
E|-------8--------7--------4-------8~------|-------8--------7--------4-------8~------|
B|-0-0-0----0-0-0----0-0-0---0-0-0---------|-0-0-0----0-0-0----0-0-0---0-0-0---------|

[Verse] 1:42
B|--------------------------|-------------------------|--------------------------|--------------------------|
G|--------------------------|-------------------------|--------------------------|--------------------------|
D|--------------------------|-------------------------|--------------------------|--------------------------|
A|--------------------------|-------------------------|--------------------------|--------------------------|
E|--------------------------|-------------------------|--------------------------|--------------------------|
B|-0--0-0--0-1-0--0-0--0--0-|-4--4-4-4-3--3-3-3--3--3-|-0--0-0--0-1-0--0-0--0--0-|-3--3-3-3-4--4-4-4--4--4--|

B|--------------------------|-------------------------|--------------------------|--------------------------|
G|--------------------------|-------------------------|--------------------------|--------------------------|
D|--------------------------|-------------------------|--------------------------|--------------------------|
A|--------------------------|-------------------------|--------------------------|--------------------------|
E|--------------------------|-------------------------|--------------------------|--------------------------|
B|-0--0-0--0-1-0--0-0--0--0-|-4--4-4-4-3--3-3-3--3--3-|-0--0-0--0-1-0--0-0--0--0-|-3--3-3-3-4--4-4-4--4--4--|

B|--------------------------|-------------------- ----|--------------------------|-------------------|
G|--------------------------|-------------------------|--------------------------|-------------------|
D|--------------------------|-------------------------|--------------------------|-------------------|
A|--------------------------|----0--------------------|--------------------------|-4-4-4--5--5-5-5---|
E|--------------------------|-2------2--0--3--0-------|--------------------------|-2-2-2--3--3-3-3---|
B|-0--0-0--0-1-0--0-0--0--0-|-------------------------|-0--0-0--0-1-0--0-0--0--0-|-------------------|

B|--------------------------|-------------------- ----|--------------------------|-------------------|
G|--------------------------|-------------------------|--------------------------|-------------------|
D|--------------------------|-------------------------|--------------------------|-------------------|
A|--------------------------|----0--------------------|--------------------------|-4-4-4--5--5-5-5---|
E|--------------------------|-2------2--0--3--0-------|--------------------------|-2-2-2--3--3-3-3---|
B|-0--0-0--0-1-0--0-0--0--0-|-------------------------|-0--0-0--0-1-0--0-0--0--0-|-------------------|

[Chorus] 2:08
B|-----------------------------------------|-----------------------------------------|
G|-----------------------------------------|-----------------------------------------|
D|-------10-------9--------6-------10~-----|-------10-------9--------6-------10~-----|
A|-------10-------9--------6-------10~-----|-------10-------9--------6-------10~-----|
E|-------8--------7--------4-------8~------|-------8--------7--------4-------8~------|
B|-0-0-0----0-0-0----0-0-0---0-0-0---------|-0-0-0----0-0-0----0-0-0---0-0-0---------|

B|-----------------------------------------|-----------------------------------------|
G|-----------------------------------------|-----------------------------------------|
D|-------10-------9--------6-------10~-----|-------10-------9--------6-------10~-----|
A|-------10-------9--------6-------10~-----|-------10-------9--------6-------10~-----|
E|-------8--------7--------4-------8~------|-------8--------7--------4-------8~------|
B|-0-0-0----0-0-0----0-0-0---0-0-0---------|-0-0-0----0-0-0----0-0-0---0-0-0---------|

[Bridge] 2:21
B|--------------|--------------|---------------|---------------|---------------|
G|--------------|--------------|---------------|---------------|---------------|
D|---9----6-----|---9----6-----|----7--8-------|---5-----------|---7----8------|
A|---9----6-----|---9----6-----|----7--8-------|---5-----------|---7----8------|
E|---7----4-----|---7----4-----|----5--6-------|---3-----------|---5----6------|
B|--------------|--------------|---------------|---------------|---------------|

B|--------------|--------------|---------------|---------------|---------------|
G|--------------|--------------|---------------|---------------|---------------|
D|---9----6-----|---9----6-----|----7--8-------|---5-----------|---7----8------|
A|---9----6-----|---9----6-----|----7--8-------|---5-----------|---7----8------|
E|---7----4-----|---7----4-----|----5--6-------|---3-----------|---5----6------|
B|--------------|--------------|---------------|---------------|---------------|

 2:42
B|---------------|-----------------|---------------|-----------------|
G|---------------|-----------------|---------------|-----------------|
D|--9--6---9--6--|--7-8---5---7-8--|--9--6---9--6--|--7-8---5---7-8--|
A|--9--6---9--6--|--7-8---5---7-8--|--9--6---9--6--|--7-8---5---7-8--|
E|--7--4---7--4--|--5-6---3---5-6--|--7--4---7--4--|--5-6---3---5-6--|
B|---------------|-----------------|---------------|-----------------|

[Fill] 2:54
B|--------------------|-----------------|-----------------|-----------------|
G|--------------------|-----------------|-----------------|-----------------|
D|--------------------|-----------------|-----------------|-----------------|
A|--------------------|-----------------|-----------------|-----------------|
E|-2-------5--4-----3-|------5--4--3--2-|------5--4-----3-|------3--5--3----|
B|-0--0-0--3--2--0--1-|-0-0--3--2--1--0-|-0-0--3--2--0--1-|-0-0--1--3--1----|
pm    . .        .      . .               . .        .      . .    

B|--------------------|-----------------|-----------------|-----------------|
G|--------------------|-----------------|-----------------|-----------------|
D|--------------------|-----------------|-----------------|-----------------|
A|--------------------|-----------------|-----------------|-----------------|
E|-2-------5--4-----3-|------5--4--3--2-|------5--4-----3-|------3--5--3----|
B|-0--0-0--3--2--0--1-|-0-0--3--2--1--0-|-0-0--3--2--0--1-|-0-0--1--3--1----|
pm    . .        .      . .               . .        .      . .    


[Under solo] 3:07
B|--------------------|-----------------|-----------------|-----------------|
G|--------------------|-----------------|-----------------|-----------------|
D|--------------------|-----------------|-----------------|-----------------|
A|--------------------|-----------------|-----------------|-----------------|
E|-2-------5--4-----3-|------5--4--3--2-|------5--4-----3-|------3--5--3----|
B|-0--0-0--3--2--0--1-|-0-0--3--2--1--0-|-0-0--3--2--0--1-|-0-0--1--3--1----|
pm    . .        .      . .               . .        .      . .    

B|--------------------|-----------------|-----------------|-----------------|
G|--------------------|-----------------|-----------------|-----------------|
D|--------------------|-----------------|-----------------|-----------------|
A|--------------------|-----------------|-----------------|-----------------|
E|-2-------5--4-----3-|------5--4--3--2-|------5--4-----3-|------5--4--3----|
B|-0--0-0--3--2--0--1-|-0-0--3--2--1--0-|-0-0--3--2--0--1-|-0-0--3--2--1----|
pm    . .        .      . .               . .        .      . .  .  .  .

 3:20
B|--------------|--------------------|----------------|--------------|--------------------|----------------|
G|--------------|--------------------|----------------|--------------|--------------------|----------------|
D|--------------|--------------------|----------------|--------------|--------------------|----------------|
A|--------------|----------4-5-4-4---|----------------|--------------|----------4-5-4-4---|----------------|
E|-2----2-1-3-4-|---4--------------5-|-4-3------5-4-3-|-2----2-1-3-4-|---4--------------5-|-4-3------5-4-3-|
B|-0------------|-----4-5------------|----------3-2-1-|-0------------|-----4-5------------|----------3-2-1-|
pm                                              . . .                                                . . .

B|--------------|--------------------|----------------|--------------|--------------------|----------------|
G|--------------|--------------------|----------------|--------------|--------------------|----------------|
D|--------------|--------------------|----------------|--------------|--------------------|----------------|
A|--------------|----------4-5-4-4---|----------------|--------------|----------4-5-4-4---|----------------|
E|-2----2-1-3-4-|---4--------------5-|-4-3------5-4-3-|-2----2-1-3-4-|---4--------------5-|-4-3------5-4-3-|
B|-0------------|-----4-5------------|----------3-2-1-|-0------------|-----4-5------------|----------3-2-1-|
pm                                              . . .                                                . . .

[Verse] 3:44
B|--------------------------|-------------------------|--------------------------|--------------------------|
G|--------------------------|-------------------------|--------------------------|--------------------------|
D|--------------------------|-------------------------|--------------------------|--------------------------|
A|--------------------------|-------------------------|--------------------------|--------------------------|
E|--------------------------|-------------------------|--------------------------|--------------------------|
B|-0--0-0--0-1-0--0-0--0--0-|-4--4-4-4-3--3-3-3--3--3-|-0--0-0--0-1-0--0-0--0--0-|-3--3-3-3-4--4-4-4--4--4--|

B|--------------------------|-------------------------|--------------------------|--------------------------|
G|--------------------------|-------------------------|--------------------------|--------------------------|
D|--------------------------|-------------------------|--------------------------|--------------------------|
A|--------------------------|-------------------------|--------------------------|--------------------------|
E|--------------------------|-------------------------|--------------------------|--------------------------|
B|-0--0-0--0-1-0--0-0--0--0-|-4--4-4-4-3--3-3-3--3--3-|-0--0-0--0-1-0--0-0--0--0-|-3--3-3-3-4--4-4-4--4--4--|

B|--------------------------|-------------------- ----|--------------------------|-------------------|
G|--------------------------|-------------------------|--------------------------|-------------------|
D|--------------------------|-------------------------|--------------------------|-------------------|
A|--------------------------|----0--------------------|--------------------------|-4-4-4--5--5-5-5---|
E|--------------------------|-2------2--0--3--0-------|--------------------------|-2-2-2--3--3-3-3---|
B|-0--0-0--0-1-0--0-0--0--0-|-------------------------|-0--0-0--0-1-0--0-0--0--0-|-------------------|

B|--------------------------|-------------------- ----|--------------------------|-------------------|
G|--------------------------|-------------------------|--------------------------|-------------------|
D|--------------------------|-------------------------|--------------------------|-------------------|
A|--------------------------|----0--------------------|--------------------------|-4-4-4--5--5-5-5---|
E|--------------------------|-2------2--0--3--0-------|--------------------------|-2-2-2--3--3-3-3---|
B|-0--0-0--0-1-0--0-0--0--0-|-------------------------|-0--0-0--0-1-0--0-0--0--0-|-------------------|

[Chorus] 4:09
B|-----------------------------------------|-----------------------------------------|
G|-----------------------------------------|-----------------------------------------|
D|-------10-------9--------6-------10~-----|-------10-------9--------6-------10~-----|
A|-------10-------9--------6-------10~-----|-------10-------9--------6-------10~-----|
E|-------8--------7--------4-------8~------|-------8--------7--------4-------8~------|
B|-0-0-0----0-0-0----0-0-0---0-0-0---------|-0-0-0----0-0-0----0-0-0---0-0-0---------|

B|-----------------------------------------|-----------------------------------------|------------|
G|-----------------------------------------|-----------------------------------------|------------|
D|-------10-------9--------6-------10~-----|-------10-------9--------6-------10~-----|------------|
A|-------10-------9--------6-------10~-----|-------10-------9--------6-------10~-----|------------|
E|-------8--------7--------4-------8~------|-------8--------7--------4-------8~------|-5-4-3-2----|
B|-0-0-0----0-0-0----0-0-0---0-0-0---------|-0-0-0----0-0-0----0-0-0---0-0-0---------|-3-2-1-0----|
pm                                                                                     . . . .


pm. = palm mute
/ = slide
(0) = ghost note

That is how I play it. Feel free to correct.

Best regards,
Nedyalko Lesev (nelesev@gmail.com)
Suggest correction
Creating personal tab
Creating personal tab
You can edit any tab online and save it as your Personal.

You can edit, replace or remove any tab part or add personal notes – all changes will be seen only by you.

Personal tabs can be accessed anytime from any device, even offline.
Learn more »
Give kudos to tab author, rate the tab!
1 2 3 4 5
comments
print report bad tab
guest
You may want to rate the tab now too:
select rating
Wanna post a correction for this tab? Suggest correction