Oops, an error
Loading. Please wait.

The New Gods tab

40 views 3 this week
no commentswrite comment
1 2 3 4 5
3 more votes to show rating
add to favorites
×
Save as Personal and add changes to this tab that will be seen only by you. Learn more ›
×
You can save this tab as Personal to edit and correct it or add notes. All changes will be seen only by you. Learn more »
launch autoscroll
font size
0
reset
how to read this tab
guitar tuner
edit
Autoscroll
slow
fast
+/-
esc
set tempo
stop
[Intro]          Tempo = 140
B|-----------------|-----------------|-----------------|-----------------|
G|-----------------|-----------------|-----------------|-----------------|
D|-----------------|-----------------|-----------------|-----------------|
A|-----------------|-----------------|-----------------|-----------------|
E|---8-7-5---5-7---|-3----5---5------|---8-7-5---5-7---|-3----5---5------|
B|-0-6-5-3-0-3-5-0-|-1--0-3---3-0----|-0-6-5-3-0-3-5-0-|-1--0-3---3-0----|
PM .       .     .      .       .      .       .     .      .       .

B|-----------------|-----------------|-----------------|-----------------|
G|-----------------|-----------------|-----------------|-----------------|
D|-----------------|-----------------|-----------------|-----------------|
A|-----------------|-----------------|-----------------|-----------------|
E|---8-7-5---5-7---|-3----5---5------|---5/7---5/7---5/|-7---5/7---5/7---|
B|-0-6-5-3-0-3-5-0-|-1--0-3---3-0----|-0-3/5-0-3/5-0-3/|-5-0-3/5-0-3/5-0-|
PM .       .     .      .       .      .     .     .       .     .     .

B|-----------------|-----------------|-----------------|-----------------|
G|-----------------|-----------------|-----------------|-----------------|
D|-----------------|-----------------|-----------------|-----------------|
A|-----------------|-----------------|-----------------|-----------------|
E|-5-8-7-5---5-7---|-3----5---5------|---8-7-5---5-7---|-3----5---5------|
B|-3-6-5-3-0-3-5-0-|-1--0-3---3-0----|-0-6-5-3-0-3-5-0-|-1--0-3---3-0----|
PM         .     .      .       .      .       .     .      .       .

B|-----------------|-----------------|-----------------|-----------------|
G|-----------------|-----------------|-----------------|-----------------|
D|-----------------|-----------------|-----------------|-----------------|
A|-----------------|-----------------|-----------------|-----------------|
E|---8-7-5---5-7---|-3----5---5------|---5/7---5/7---5/|-7-5/7---5/7---5-|
B|-0-6-5-3-0-3-5-0-|-1--0-3---3-0----|-0-3/5-0-3/5-0-3/|-5-3/5-0-3/5-0-3-|
PM .       .     .      .       .      .     .     .           .     .

[Pre-Verse]       Tempo = 145
B|-----------------|-----------------|-----------------|-----------------|
G|-----------------|-----------------|-----------------|-----------------|
D|-----------------|-----------------|-----------------|-----------------|
A|-----------------|-----------------|-----------------|-----------------| (Both)
E|-7-8-7-5---5-7---|-3----5---5------|---8-7-5---5-7---|-3----5---5------|
B|-5-6-5-3-0-3-5-0-|-1--0-3---3-0----|-0-6-5-3-0-3-5-0-|-1--0-3---3-0----|
PM         .     .      .       .      .       .     .      .       .

B|-----------------|-----------------|-----------------|-----------------|
G|-----------------|-----------------|-----------------|-----------------|
D|-----------------|-----------------|-----------------|-----------------|
A|-----------------|-----------------|-----------------|-----------5-4---| (Guitar 1)
E|---8-7-5---5-7---|-3----5---5------|---5/7---5/7---5/|-7-5/7---5-----5-|
B|-0-6-5-3-0-3-5-0-|-1--0-3---3-0----|-0-3/5-0-3/5-0-3/|-5-3/5-0-3-------|
PM .       .     .      .       .      .     .     .           .     

B|-----------------|-----------------|-----------------|-----------------|
G|-----------------|-----------------|-----------------|-----------------|
D|-----------------|-----------------|-----------------|-----------------|
A|-----------------|-----------------|-----------------|-----------9-7---| (Guitar 2)
E|---8-7-5---5-7---|-3----5---5------|---5/7---5/7---5/|-7-5/7---5-----9-|
B|-0-6-5-3-0-3-5-0-|-1--0-3---3-0----|-0-3/5-0-3/5-0-3/|-5-3/5-0-3-------|
PM .       .     .      .       .      .     .     .           .     

[Verse]
B|-----------------------------|-----------------------------|-----------------------------|
G|-----------------------------|-----------------------------|-----------------------------|
D|-----------------------------|-----------------------------|-----------------------------|
A|-----------------------------|-----------------5--4--------|-----------------------------| (Guitar 1)
E|-7~--------------------------|-----------------------5--7~-|-----------------------------|
B|-----0-0-0-0-0-0-0-0-0-0-0-0-|-0-0-0-0-0-0-0-0-------------|-----0-0-0-0-0-0-0-0-0-0-0-0-|
PM     . . . . . . . . . . . .   . . . . . . . .                   . . . . . . . . . . . .

B|-----------------------------|-----------------------------|-----------------------------|
G|-----------------------------|-----------------------------|-----------------------------|
D|-----------------------------|-----------------------------|-----------------------------|
A|-----------------------------|-----------------9--7--------|-----------------------------| (Guitar 2)
E|-10~-------------------------|-----------------------9-10~-|-----------------------------|
B|-----0-0-0-0-0-0-0-0-0-0-0-0-|-0-0-0-0-0-0-0-0-------------|-----0-0-0-0-0-0-0-0-0-0-0-0-|
PM     . . . . . . . . . . . .   . . . . . . . .                   . . . . . . . . . . . .

B|-----------------------------|-----------------------------|-----------------------------|
G|-----------------------------|-----------------------------|-----------------------------|
D|-----------------------------|-----------------------------|-----------------------------|
A|-----------------5--4-----7~-|-----------------------------|-----------------5--4-----7~-| (Guitar 1)
E|-----------------------5-----|-----------------------------|-----------------------5-----|
B|-0-0-0-0-0-0-0-0-------------|-----0-0-0-0-0-0-0-0-0-0-0-0-|-0-0-0-0-0-0-0-0-------------|
PM . . . . . . . .                   . . . . . . . . . . . .   . . . . . . . .

B|-----------------------------|-----------------------------|-----------------------------|
G|-----------------------------|-----------------------------|-----------------------------|
D|-----------------------------|-----------------------------|-----------------------------|
A|-----------------9--7----10~-|-----------------------------|-----------------9--7----10~-| (Guitar 2)
E|----------------------10-----|-----------------------------|----------------------10-----|
B|-0-0-0-0-0-0-0-0-------------|-----0-0-0-0-0-0-0-0-0-0-0-0-|-0-0-0-0-0-0-0-0-------------|
PM . . . . . . . .                   . . . . . . . . . . . .   . . . . . . . .

B|-----------------------------|-----------------------------|-----------------------------|
G|-----------------------------|-----------------------------|-----------------------------|
D|-----------------------------|-----------------------------|-----------------------------|
A|-----------------------------|-----------------5--4-----8~-|-----------------------------| (Guitar 1)
E|-----------------------------|-----------------------5-----|-----------------------------|
B|-----0-0-0-0-0-0-0-0-0-0-0-0-|-0-0-0-0-0-0-0-0-------------|-----0-0-0-0-0-0-0-0-0-0-0-0-|
PM     . . . . . . . . . . . .   . . . . . . . .                   . . . . . . . . . . . .

B|-----------------------------|-----------------------------|-----------------------------|
G|-----------------------------|-----------------------------|-----------------------------|
D|-----------------------------|-----------------------------|-----------------------------|
A|-----------------------------|-----------------9--7----12~-|-----------------------------| (Guitar 2)
E|-----------------------------|-----------------------9-----|-----------------------------|
B|-----0-0-0-0-0-0-0-0-0-0-0-0-|-0-0-0-0-0-0-0-0-------------|-----0-0-0-0-0-0-0-0-0-0-0-0-|
PM     . . . . . . . . . . . .   . . . . . . . .                   . . . . . . . . . . . .

B|-----------------------------|-----------------------------|-----------------------------|
G|-----------------------------|-----------------------------|-----------------------------|
D|-----------------------------|-----------------------------|-----------------------------|
A|-----------------5--4-----8~-|-----------------------------|-----------------5--4-----9~-| (Guitar 1)
E|-----------------------5-----|-----------------------------|-----------------------5-----|
B|-0-0-0-0-0-0-0-0-------------|-----0-0-0-0-0-0-0-0-0-0-0-0-|-0-0-0-0-0-0-0-0-------------|
PM . . . . . . . .                   . . . . . . . . . . . .   . . . . . . . .

B|-----------------------------|-----------------------------|-----------------------------|
G|-----------------------------|-----------------------------|-----------------------------|
D|-----------------------------|-----------------------------|-----------------------------|
A|-----------------9--7----12~-|-----------------------------|-----------------9--7----13~-| (Guitar 2)
E|----------------------10-----|-----------------------------|----------------------10-----|
B|-0-0-0-0-0-0-0-0-------------|-----0-0-0-0-0-0-0-0-0-0-0-0-|-0-0-0-0-0-0-0-0-------------|
PM . . . . . . . .                   . . . . . . . . . . . .   . . . . . . . .

B|-----------------------------|-----------------------------|-----------------------------|
G|-----------------------------|-----------------------------|-----------------------------|
D|-----------------------------|-----------------------------|-----------------------------|
A|-----------------------------|-----------------5--4-----9~-|-----------------------------| (Guitar 1)
E|-----------------------------|-----------------------5-----|-----------------------------|
B|-----0-0-0-0-0-0-0-0-0-0-0-0-|-0-0-0-0-0-0-0-0-------------|-----0-0-0-0-0-0-0-0-0-0-0-0-|
PM     . . . . . . . . . . . .   . . . . . . . .                   . . . . . . . . . . . .

B|-----------------------------|-----------------------------|-----------------------------|
G|-----------------------------|-----------------------------|-----------------------------|
D|-----------------------------|-----------------------------|-----------------------------|
A|-----------------------------|-----------------9--7----13~-|-----------------------------| (Guitar 2)
E|-----------------------------|-----------------------9-----|-----------------------------|
B|-----0-0-0-0-0-0-0-0-0-0-0-0-|-0-0-0-0-0-0-0-0-------------|-----0-0-0-0-0-0-0-0-0-0-0-0-|
PM     . . . . . . . . . . . .   . . . . . . . .                   . . . . . . . . . . . . 

B|-----------------------------|
G|-----------------------------|
D|-----------------------------|
A|--------------------------7--| (Guitar 1)
E|-----------------6--7--9-----|
B|-----0-0-0-0-0-0-------------|
PM     . . . . . .

B|-------------------------------|
G|-------------------------------|
D|-------------------------------|
A|----------------------------14-| (Guitar 2)
E|-------------------13-14-16----|
B|-----0-0-0-0-0-0-0-------------|
PM     . . . . . .

[Chorus]
B|-----------------|-----------------|-----------------|---------|
G|-----------------|-----------------|-----------------|---------|
D|-----------------|-----------------|-----------------|---------|
A|-8---------------|---------------8-|-----------------|---------| (Guitar 1)
E|-6-------------5-|---------------6-|--------------5--|-4--3--2-|
B|---------------3-|-----------------|--------------3--|-2--1--0-|

B|-----------------|-----------------|-----------------|---------|
G|-----------------|-----------------|-----------------|---------|
D|-12-----------12-|--------------12-|-----------------|---------|
A|-----------------|-----------------|-----------------|---------| (Guitar 2)
E|-10-----------10-|--------------10-|--------------5--|-4--3--2-|
B|-----------------|-----------------|--------------3--|-2--1--0-|

B|-----------------|-----------------|-----------------|-------------------|
G|-----------------|-----------------|-----------------|-------------------|
D|-----------------|-----------------|-----------------|-------------------|
A|-8---------------|---------------8-|-----------------|----------5-4------| (Guitar 1)
E|-6-------------5-|---------------6-|--------------5--|-4--3--2------5-7~-|
B|---------------3-|-----------------|--------------3--|-2--1--0-----------|

B|-----------------|-----------------|-----------------|-------------------|
G|-----------------|-----------------|-----------------|-------------------|
D|-12-----------12-|--------------12-|-----------------|-------------------|
A|-----------------|-----------------|-----------------|----------9-7------| (Guitar 2)
E|-10-----------10-|--------------10-|--------------5--|-4--3--2------9-10~|
B|-----------------|-----------------|--------------3--|-2--1--0-----------|

[Verse]
B|-----------------------------|-----------------------------|-----------------------------|
G|-----------------------------|-----------------------------|-----------------------------|
D|-----------------------------|-----------------------------|-----------------------------|
A|-----------------------------|-----------------5--4--------|-----------------------------| (Guitar 1)
E|-----------------------------|-----------------------5--7~-|-----------------------------|
B|-----0-0-0-0-0-0-0-0-0-0-0-0-|-0-0-0-0-0-0-0-0-------------|-----0-0-0-0-0-0-0-0-0-0-0-0-|
PM     . . . . . . . . . . . .   . . . . . . . .                   . . . . . . . . . . . .

B|-----------------------------|-----------------------------|-----------------------------|
G|-----------------------------|-----------------------------|-----------------------------|
D|-----------------------------|-----------------------------|-----------------------------|
A|-----------------------------|-----------------9--7--------|-----------------------------| (Guitar 2)
E|-----------------------------|-----------------------9-10~-|-----------------------------|
B|-----0-0-0-0-0-0-0-0-0-0-0-0-|-0-0-0-0-0-0-0-0-------------|-----0-0-0-0-0-0-0-0-0-0-0-0-|
PM     . . . . . . . . . . . .   . . . . . . . .                   . . . . . . . . . . . .

B|-----------------------------|-----------------------------|-----------------------------|
G|-----------------------------|-----------------------------|-----------------------------|
D|-----------------------------|-----------------------------|-----------------------------|
A|-----------------5--4-----7~-|-----------------------------|-----------------5--4-----7~-| (Guitar 1)
E|-----------------------5-----|-----------------------------|-----------------------5-----|
B|-0-0-0-0-0-0-0-0-------------|-----0-0-0-0-0-0-0-0-0-0-0-0-|-0-0-0-0-0-0-0-0-------------|
PM . . . . . . . .                   . . . . . . . . . . . .   . . . . . . . .

B|-----------------------------|-----------------------------|-----------------------------|
G|-----------------------------|-----------------------------|-----------------------------|
D|-----------------------------|-----------------------------|-----------------------------|
A|-----------------9--7----10~-|-----------------------------|-----------------9--7----10~-| (Guitar 2)
E|----------------------10-----|-----------------------------|----------------------10-----|
B|-0-0-0-0-0-0-0-0-------------|-----0-0-0-0-0-0-0-0-0-0-0-0-|-0-0-0-0-0-0-0-0-------------|
PM . . . . . . . .                   . . . . . . . . . . . .   . . . . . . . .

B|-----------------------------|-----------------------------|-----------------------------|
G|-----------------------------|-----------------------------|-----------------------------|
D|-----------------------------|-----------------------------|-----------------------------|
A|-----------------------------|-----------------5--4-----8~-|-----------------------------| (Guitar 1)
E|-----------------------------|-----------------------5-----|-----------------------------|
B|-----0-0-0-0-0-0-0-0-0-0-0-0-|-0-0-0-0-0-0-0-0-------------|-----0-0-0-0-0-0-0-0-0-0-0-0-|
PM     . . . . . . . . . . . .   . . . . . . . .                   . . . . . . . . . . . .

B|-----------------------------|-----------------------------|-----------------------------|
G|-----------------------------|-----------------------------|-----------------------------|
D|-----------------------------|-----------------------------|-----------------------------|
A|-----------------------------|-----------------9--7----12~-|-----------------------------| (Guitar 2)
E|-----------------------------|-----------------------9-----|-----------------------------|
B|-----0-0-0-0-0-0-0-0-0-0-0-0-|-0-0-0-0-0-0-0-0-------------|-----0-0-0-0-0-0-0-0-0-0-0-0-|
PM     . . . . . . . . . . . .   . . . . . . . .                   . . . . . . . . . . . .

B|-----------------------------|-----------------------------|-----------------------------|
G|-----------------------------|-----------------------------|-----------------------------|
D|-----------------------------|-----------------------------|-----------------------------|
A|-----------------5--4-----8~-|-----------------------------|-----------------5--4-----9~-| (Guitar 1)
E|-----------------------5-----|-----------------------------|-----------------------5-----|
B|-0-0-0-0-0-0-0-0-------------|-----0-0-0-0-0-0-0-0-0-0-0-0-|-0-0-0-0-0-0-0-0-------------|
PM . . . . . . . .                   . . . . . . . . . . . .   . . . . . . . .

B|-----------------------------|-----------------------------|-----------------------------|
G|-----------------------------|-----------------------------|-----------------------------|
D|-----------------------------|-----------------------------|-----------------------------|
A|-----------------9--7----12~-|-----------------------------|-----------------9--7----13~-| (Guitar 2)
E|----------------------10-----|-----------------------------|----------------------10-----|
B|-0-0-0-0-0-0-0-0-------------|-----0-0-0-0-0-0-0-0-0-0-0-0-|-0-0-0-0-0-0-0-0-------------|
PM . . . . . . . .                   . . . . . . . . . . . .   . . . . . . . .

B|-----------------------------|-----------------------------|-----------------------------|
G|-----------------------------|-----------------------------|-----------------------------|
D|-----------------------------|-----------------------------|-----------------------------|
A|-----------------------------|-----------------5--4-----9~-|-----------------------------| (Guitar 1)
E|-----------------------------|-----------------------5-----|-----------------------------|
B|-----0-0-0-0-0-0-0-0-0-0-0-0-|-0-0-0-0-0-0-0-0-------------|-----0-0-0-0-0-0-0-0-0-0-0-0-|
PM     . . . . . . . . . . . .   . . . . . . . .                   . . . . . . . . . . . .

B|-----------------------------|-----------------------------|-----------------------------|
G|-----------------------------|-----------------------------|-----------------------------|
D|-----------------------------|-----------------------------|-----------------------------|
A|-----------------------------|-----------------9--7----13~-|-----------------------------| (Guitar 2)
E|-----------------------------|-----------------------9-----|-----------------------------|
B|-----0-0-0-0-0-0-0-0-0-0-0-0-|-0-0-0-0-0-0-0-0-------------|-----0-0-0-0-0-0-0-0-0-0-0-0-|
PM     . . . . . . . . . . . .   . . . . . . . .                   . . . . . . . . . . . . 

B|-----------------------------|
G|-----------------------------|
D|-----------------------------|
A|--------------------------7--| (Guitar 1)
E|-----------------6--7--9-----|
B|-----0-0-0-0-0-0-------------|
PM     . . . . . .

B|-------------------------------|
G|-------------------------------|
D|-------------------------------|
A|----------------------------14-| (Guitar 2)
E|-------------------13-14-16----|
B|-----0-0-0-0-0-0-0-------------|
PM     . . . . . .

[Chorus]
B|-----------------|-----------------|-----------------|---------|
G|-----------------|-----------------|-----------------|---------|
D|-----------------|-----------------|-----------------|---------|
A|-8---------------|---------------8-|-----------------|---------| (Guitar 1)
E|-6-------------5-|---------------6-|--------------5--|-4--3--2-|
B|---------------3-|-----------------|--------------3--|-2--1--0-|

B|-----------------|-----------------|-----------------|---------|
G|-----------------|-----------------|-----------------|---------|
D|-12-----------12-|--------------12-|-----------------|---------|
A|-----------------|-----------------|-----------------|---------| (Guitar 2)
E|-10-----------10-|--------------10-|--------------5--|-4--3--2-|
B|-----------------|-----------------|--------------3--|-2--1--0-|

B|-----------------|-----------------|-----------------|---------------|
G|-----------------|-----------------|-----------------|---------------|
D|-----------------|-----------------|-----------------|---------------|
A|-8---------------|---------------8-|-----------------|---------------| (Guitar 1)
E|-6-------------5-|---------------6-|--------------5--|--4---3---2----|
B|---------------3-|-----------------|--------------3--|--2---1---0----|

B|-----------------|-----------------|-----------------|---------------|
G|-----------------|-----------------|-----------------|---------------|
D|-12-----------12-|--------------12-|-----------------|---------------|
A|-----------------|-----------------|-----------------|---------------| (Guitar 2)
E|-10-----------10-|--------------10-|--------------5--|--4---3---2----|
B|-----------------|-----------------|--------------3--|--2---1---0----|

[Interlude]
B|------------------|------------------|------------------|------------------|
G|------------------|------------------|------------------|------------------|
D|------------------|------------------|------------------|------------------|
A|------------------|------------------|------------------|------------------|
E|------------------|-----3~-----------|---------3~-------|--------------3~--|
B|-0----0----0----0-|-3-0------0-0---0-|-0---3-0------0-0-|--0---0---3-0-----|

B|------------------|------------------|------------------|------------------|
G|------------------|------------------|------------------|------------------|
D|------------------|------------------|------------------|------------------|
A|------------------|------------------|------------------|------------------|
E|-----------5---5--|------------------|-3~---------------|-----3~-----------|
B|-0-0---0---3-0-3--|-0-0---0---0--3-0-|------0-0---0---0-|-3-0------0-0---0-|
PM           . . 

B|------------------|-------------|-----------------|-----------------|
G|------------------|-------------|-----------------|-----------------|
D|------------------|-------------|-----------------|-----------------|
A|------------------|-------------|-10--------------|-5------4---3----|
E|---------3~-------|-------------|-10--------------|-5------4---3----|
B|-0---3-0------0-0-|--0---0------|-8---------------|-3------2---1----|

B|------------------|------------------|------------------|------------------|
G|------------------|------------------|------------------|------------------|
D|------------------|------------------|------------------|------------------|
A|------------------|------------------|------------------|------------------|
E|------------------|-----3~-----------|---------3~-------|--------------3~--|
B|-0----0----0----0-|-3-0------0-0---0-|-0---3-0------0-0-|--0---0---3-0-----|

B|------------------|------------------|------------------|------------------|
G|------------------|------------------|------------------|------------------|
D|------------------|------------------|------------------|------------------|
A|------------------|------------------|------------------|------------------|
E|-----------5---5--|------------------|-3~---------------|-----3~-----------|
B|-0-0---0---3-0-3--|-0-0---0---0--3-0-|------0-0---0---0-|-3-0------0-0---0-|
PM           . . 

B|------------------|-------------|-----------------|-----------------|
G|------------------|-------------|-----------------|-----------------|
D|------------------|-------------|-----------------|-----------------|
A|------------------|-------------|-10--------------|-5------7--------|
E|---------3~-------|-------------|-10--------------|-5------7--------|
B|-0---3-0------0-0-|--0---0------|-8---------------|-3------5--------|

[Bridge]
B|-----------------|-----------------|-----------------|-----------------|
G|-----------------|-----------------|-----------------|-----------------|
D|-----------------|-----------------|-----------------|-----------------|
A|-----------------|-----------------|-----------------|-----------------| (Guitar 1)
E|---8-7-5---5-7---|-3----5---5------|---8-7-5---5-7---|-3----5---5------|
B|-0-6-5-3-0-3-5-0-|-1--0-3---3-0----|-0-6-5-3-0-3-5-0-|-1--0-3---3-0----|
PM .       .     .      .       .      .       .     .      .       .

B|-----------------|-----------------|-----------------|-----------------|
G|-----------------|-----------------|-----------------|-----------------|
D|-----------------|-----------------|-----------------|-----------------|
A|-----------------|-----------------|-----------------|-----------------| (Guitar 2)
E|-----------------|-3----5---5------|-----------------|-3----5---5------|
B|---------------0-|-1--0-3---3-0----|---------------0-|-1--0-3---3-0----|
PM               .      .       .                    .      .       .

B|-----------------|-----------------|--------------------|
G|-----------------|-----------------|--------------------|
D|-----------------|-----------------|--------------------|
A|-----------------|-----------------|--------------------| (Guitar 1)
E|---8-7-5---5-7---|-3----5---5------|-5-6-7-8-9-10-11-12-|
B|-0-6-5-3-0-3-5-0-|-1--0-3---3-0--0-|-3-4-5-6-7-8--9--10-|
PM . . . . . . . .      .       .  .          

B|-----------------|-----------------|----------------------|
G|-----------------|-----------------|----------------------|
D|-----------------|-----------------|-7-8-9-10-11-12-13-14-|
A|-----------------|-----------------|----------------------| (Guitar 2)
E|---8-7-5---5-7---|-3----5---5------|-5-6-7-8--9--10-11-12-|
B|-0-6-5-3-0-3-5-0-|-1--0-3---3-0--0-|----------------------|
PM . . . . . . . .      .       .  .          

[Chorus]
B|-----------------|-----------------|-----------------|---------|
G|-----------------|-----------------|-----------------|---------|
D|-----------------|-----------------|-----------------|---------|
A|-8---------------|---------------8-|-----------------|---------| (Guitar 1)
E|-6-------------5-|---------------6-|--------------5--|-4--3--2-|
B|---------------3-|-----------------|--------------3--|-2--1--0-|

B|-----------------|-----------------|-----------------|---------|
G|-----------------|-----------------|-----------------|---------|
D|-12-----------12-|--------------12-|-----------------|---------|
A|-----------------|-----------------|-----------------|---------| (Guitar 2)
E|-10-----------10-|--------------10-|--------------5--|-4--3--2-|
B|-----------------|-----------------|--------------3--|-2--1--0-|

B|-----------------|-----------------|-----------------|---------------|
G|-----------------|-----------------|-----------------|---------------|
D|-----------------|-----------------|-----------------|---------------|
A|-8---------------|---------------8-|-----------------|---------------| (Guitar 1)
E|-6-------------5-|---------------6-|--------------5--|--4---3---2----|
B|---------------3-|-----------------|--------------3--|--2---1---0----|

B|-----------------|-----------------|-----------------|---------------|
G|-----------------|-----------------|-----------------|---------------|
D|-12-----------12-|--------------12-|-----------------|---------------|
A|-----------------|-----------------|-----------------|---------------| (Guitar 2)
E|-10-----------10-|--------------10-|--------------5--|--4---3---2----|
B|-----------------|-----------------|--------------3--|--2---1---0----|

B|-----------------|-----------------|-----------------|---------|
G|-----------------|-----------------|-----------------|---------|
D|-----------------|-----------------|-----------------|---------|
A|-8---------------|---------------8-|-----------------|---------| (Guitar 1)
E|-6-------------5-|---------------6-|--------------5--|-4--3--2-|
B|---------------3-|-----------------|--------------3--|-2--1--0-|

B|-----------------|-----------------|-----------------|---------|
G|-----------------|-----------------|-----------------|---------|
D|-12-----------12-|--------------12-|-----------------|---------|
A|-----------------|-----------------|-----------------|---------| (Guitar 2)
E|-10-----------10-|--------------10-|--------------5--|-4--3--2-|
B|-----------------|-----------------|--------------3--|-2--1--0-|

B|-----------------|-----------------|-----------------|---------------|
G|-----------------|-----------------|-----------------|---------------|
D|-----------------|-----------------|-----------------|---------------|
A|-8---------------|---------------8-|-----------------|---------------| (Guitar 1)
E|-6-------------5-|---------------6-|--------------5--|--4---3---2----|
B|---------------3-|-----------------|--------------3--|--2---1---0----|
PM                                                  .     .   .   .

B|-----------------|-----------------|-----------------|---------------|
G|-----------------|-----------------|-----------------|---------------|
D|-12-----------12-|--------------12-|-----------------|---------------|
A|-----------------|-----------------|-----------------|---------------| (Guitar 2)
E|-10-----------10-|--------------10-|--------------5--|--4---3---2----|
B|-----------------|-----------------|--------------3--|--2---1---0----|
PM                                                  .     .   .   .

************************************

| /   Slide up
| ~   Vibrato
| PM  Palm mute

************************************

            
            
Suggest correction
Creating personal tab
Creating personal tab
You can edit any tab online and save it as your Personal.

You can edit, replace or remove any tab part or add personal notes – all changes will be seen only by you.

Personal tabs can be accessed anytime from any device, even offline.
Learn more »
Give kudos to tab author, rate the tab!
1 2 3 4 5
comments
print report bad tab
guest
You may want to rate the tab now too:
select rating
Wanna post a correction for this tab? Suggest correction