Oops, an error
Loading. Please wait.

The War On Stupidity tab

58 views 3 this week
no commentswrite comment
1 2 3 4 5
3 more votes to show rating
add to favorites
×
Save as Personal and add changes to this tab that will be seen only by you. Learn more ›
×
You can save this tab as Personal to edit and correct it or add notes. All changes will be seen only by you. Learn more »
launch autoscroll
font size
0
reset
how to read this tab
guitar tuner
edit
Autoscroll
slow
fast
+/-
esc
set tempo
stop
 [Intro] 0:00
B|-----------------|-----------------|-----------------|-----------------|
G|-----------------|-----------------|-----------------|-----------------|
D|-----6-/7--------|-----6-/7--------|-----7-\6--------|-----7-\6---4----|
A|-----------------|-----------------|-----------------|-----------------| Guitar 1
E|-----4-/5--------|-----4-/5--------|-----5-\4--------|-----5-\4---2----|
B|-----------------|-----------------|-----------------|-----------------|

B|-----------------|-----------------|-----------------|-----------------|
G|-----------------|-----------------|-----------------|-----------------|
D|-----------------|-----------------|-----------------|-----------------|
A|-----------------|-----------------|-----------------|-----------------| Guitar 2
E|-4-4-------------|-3-3-------------|-2-2-------------|-5-5-------------|
B|-2-2-------------|-1-1-------------|-0-0-------------|-3-3-------------|
pm . .               . .               . .               . .


B|-----------------|-----------------|-----------------|-----------------|
G|-----------------|-----------------|-----------------|-----------------|
D|-----6-/7--------|-----6-/7--------|-----7-\6--------|-----7-\6---4----|
A|-----------------|-----------------|-----------------|-----------------| Guitar 1
E|-----4-/5--------|-----4-/5--------|-----5-\4--------|-----5-\4---2----|
B|-----------------|-----------------|-----------------|-----------------|

B|-----------------|-----------------|-----------------|-----------------|
G|-----------------|-----------------|-----------------|-----------------|
D|-----------------|-----------------|-----------------|-----------------|
A|-----------------|-----------------|-----------------|-----------------| Guitar 2
E|-4-4-------------|-3-3-------------|-2-2-------------|-5-5-------------|
B|-2-2-------------|-1-1-------------|-0-0-------------|-3-3-------------|
pm . .               . .               . .               . .

B|-----------------|-----------------|-----------------|-----------------|
G|-----------------|-----------------|-----------------|-----------------|
D|-----6-/7--------|-----6-/7--------|-----7-\6--------|-----7-\6---4----|
A|-----------------|-----------------|-----------------|-----------------|
E|-----4-/5--------|-----4-/5--------|-----5-\4--------|-----5-\4---2----|
B|-----------------|-----------------|-----------------|-----------------|

B|-----------------|-----------------|-----------------|-----------------|
G|-----------------|-----------------|-----------------|-----------------|
D|-----6-/7--------|-----6-/7--------|-----7-\6--------|-----7-\6---4----|
A|-----------------|-----------------|-----------------|-----------------|
E|-----4-/5--------|-----4-/5--------|-----5-\4--------|-----5-\4---2----|
B|-----------------|-----------------|-----------------|-----------------|

 [Pre-Verse] 0:43
B|-----------------|-----------------|-----------------|
G|-----------------|-----------------|-----------------|
D|-----------------|-----------------|-----------------|
A|-----------------|-----------------|-----------------|
E|-2-2-2-2-2-2-2-2-|-2-2-2-2-2-2-7-6-|-5-5-5-5-8-8-8-8-|
B|-0-0-0-0-0-0-0-0-|-0-0-0-0-0-0-5-4-|-3-3-3-3-6-6-6-6-|

B|-----------------|-----------------|-----------------|
G|-----------------|-----------------|-----------------|
D|-----------------|-----------------|-----------------|
A|-----------------|-----------------|-----------------|
E|-2-2-2-2-2-2-2-2-|-2-2-2-2-2-2-7-6-|-5-5-5-5-8-8-8-8-|
B|-0-0-0-0-0-0-0-0-|-0-0-0-0-0-0-5-4-|-3-3-3-3-6-6-6-6-|

 [Verse] 0:52
B|-----------------|-----------------|-----------------|
G|-----------------|-----------------|-----------------|
D|-----------------|-----------------|-----------------|
A|-----------------|-----------------|-----------------|
E|-2-2-2-2-2-2-2-2-|-2-2-2-2-2-2-7-6-|-5-5-5-5-8-8-8-8-|
B|-0-0-0-0-0-0-0-0-|-0-0-0-0-0-0-5-4-|-3-3-3-3-6-6-6-6-|

B|-----------------|-----------------|-----------------|
G|-----------------|-----------------|-----------------|
D|-----------------|-----------------|-----------------|
A|-----------------|-----------------|-----------------|
E|-2-2-2-2-2-2-2-2-|-2-2-2-2-2-2-7-6-|-5-5-5-5-8-8-8-8-|
B|-0-0-0-0-0-0-0-0-|-0-0-0-0-0-0-5-4-|-3-3-3-3-6-6-6-6-|

B|-----------------|-----------------|-----------------|
G|-----------------|-----------------|-----------------|
D|-----------------|-----------------|-----------------|
A|-----------------|-----------------|-----------------|
E|-2-2-2-2-2-2-2-2-|-2-2-2-2-2-2-7-6-|-5-5-5-5-8-8-8-8-|
B|-0-0-0-0-0-0-0-0-|-0-0-0-0-0-0-5-4-|-3-3-3-3-6-6-6-6-|


B|-----------------|-----------------|-----------------|
G|-----------------|-----------------|-----------------|
D|-----------------|-----------------|-----------------|
A|-----------------|-----------------|-----------------|
E|-2-2-2-2-2-2-2-2-|-2-2-2-2-2-2-7-6-|-5-5-5-5-8-8-8-8-|
B|-0-0-0-0-0-0-0-0-|-0-0-0-0-0-0-5-4-|-3-3-3-3-6-6-6-6-|

 [Chorus] 1:09
B|-----------------|-----------------|-----------------|-----------------|
G|-----------------|-----------------|-----------------|-----------------|
D|-----------------|-----------------|-----------------|-----------------|
A|-----------------|-----------------|-----------------|-----------------|
E|---------4-4-3-3-|---------2-2-1-1-|-----------------|-----------------|
B|-0-0-0-0---------|-0-0-0-0---------|-0-0-0-0-5-5-4-4-|-3-3-3-3-6-6-6-6-|
pm . . . . . . . .   . . . . . . . .   . . . . . . . .   . . . . . . . .

B|-----------------|-----------------|-----------------|-----------------|
G|-----------------|-----------------|-----------------|-----------------|
D|-----------------|-----------------|-----------------|-----------------|
A|-----------------|-----------------|-----------------|-----------------|
E|---------4-4-3-3-|---------2-2-1-1-|-----------------|-----------------|
B|-0-0-0-0---------|-0-0-0-0---------|-0-0-0-0-5-5-4-4-|-3-3-3-3-6-6-6-6-|
pm . . . . . . . .   . . . . . . . .   . . . . . . . .   . . . . . . . .

 [Fill] 1:18
B|-----------------|-----------------|-----------------|-----------------|
G|-----------------|-----------------|-----------------|-----------------|
D|-----------------|-----------------|-----------------|-----------------|
A|-----------------|-----------------|-----------------|-----------------|
E|---------4-4-3-3-|---------2-2-1-1-|-----------------|-----------------|
B|-0-0-0-0---------|-0-0-0-0---------|-0-0-0-0-5-5-4-4-|-3-3-3-3-6-6-6-6-|
pm . . . . . . . .   . . . . . . . .   . . . . . . . .   . . . . . . . .

B|-----------------|-----------------|-----------------|-----------------|
G|-----------------|-----------------|-----------------|-----------------|
D|-----------------|-----------------|-----------------|-----------------|
A|-----------------|-----------------|-----------------|-----------------|
E|---------4-4-3-3-|---------2-2-1-1-|-----------------|-----------------|
B|-0-0-0-0---------|-0-0-0-0---------|-0-0-0-0-5-5-4-4-|-3-3-3-3-6-6-6-6-|
pm . . . . . . . .   . . . . . . . .   . . . . . . . .   . . . . . . . .

 [Chorus] 1:27
B|-----------------|-----------------|-----------------|-----------------|
G|-----------------|-----------------|-----------------|-----------------|
D|-----------------|-----------------|-----------------|-----------------|
A|-----------------|-----------------|-----------------|-----------------|
E|---------4-4-3-3-|---------2-2-1-1-|-----------------|-----------------|
B|-0-0-0-0---------|-0-0-0-0---------|-0-0-0-0-5-5-4-4-|-3-3-3-3-6-6-6-6-|
pm . . . . . . . .   . . . . . . . .   . . . . . . . .   . . . . . . . .

B|-----------------|-----------------|-----------------|-----------------|
G|-----------------|-----------------|-----------------|-----------------|
D|-----------------|-----------------|-----------------|-----------------|
A|-----------------|-----------------|-----------------|-----------------|
E|---------4-4-3-3-|---------2-2-1-1-|-----------------|-----------------|
B|-0-0-0-0---------|-0-0-0-0---------|-0-0-0-0-5-5-4-4-|-3-3-3-3-6-6-6-6-|
pm . . . . . . . .   . . . . . . . .   . . . . . . . .   . . . . . . . .

B|-----------------|-----------------|-----------------|-----------------|
G|-----------------|-----------------|-----------------|-----------------|
D|-----------------|-----------------|-----------------|-----------------|
A|-----------------|-----------------|-----------------|-----------------|
E|---------4-4-3-3-|---------2-2-1-1-|-----------------|-----------------|
B|-0-0-0-0---------|-0-0-0-0---------|-0-0-0-0-5-5-4-4-|-3-3-3-3-6-6-6-6-|
pm . . . . . . . .   . . . . . . . .   . . . . . . . .   . . . . . . . .

B|-----------------|-----------------|-----------------|-----------------|
G|-----------------|-----------------|-----------------|-----------------|
D|-----------------|-----------------|-----------------|-----------------|
A|-----------------|-----------------|-----------------|-----------------|
E|---------4-4-3-3-|---------2-2-1-1-|-----------------|-----------------|
B|-0-0-0-0---------|-0-0-0-0---------|-0-0-0-0-5-5-4-4-|-3-3-3-3-6-6-6-6-|
pm . . . . . . . .   . . . . . . . .   . . . . . . . .   . . . . . . . .

 [Verse] 1:44
B|-----------------|-----------------|-----------------|
G|-----------------|-----------------|-----------------|
D|-----------------|-----------------|-----------------|
A|-----------------|-----------------|-----------------|
E|-2-2-2-2-2-2-2-2-|-2-2-2-2-2-2-7-6-|-5-5-5-5-8-8-8-8-|
B|-0-0-0-0-0-0-0-0-|-0-0-0-0-0-0-5-4-|-3-3-3-3-6-6-6-6-|

B|-----------------|-----------------|-----------------|
G|-----------------|-----------------|-----------------|
D|-----------------|-----------------|-----------------|
A|-----------------|-----------------|-----------------|
E|-2-2-2-2-2-2-2-2-|-2-2-2-2-2-2-7-6-|-5-5-5-5-8-8-8-8-|
B|-0-0-0-0-0-0-0-0-|-0-0-0-0-0-0-5-4-|-3-3-3-3-6-6-6-6-|

B|-----------------|-----------------|-----------------|
G|-----------------|-----------------|-----------------|
D|-----------------|-----------------|-----------------|
A|-----------------|-----------------|-----------------|
E|-2-2-2-2-2-2-2-2-|-2-2-2-2-2-2-7-6-|-5-5-5-5-8-8-8-8-|
B|-0-0-0-0-0-0-0-0-|-0-0-0-0-0-0-5-4-|-3-3-3-3-6-6-6-6-|

B|-----------------|-----------------|-----------------|
G|-----------------|-----------------|-----------------|
D|-----------------|-----------------|-----------------|
A|-----------------|-----------------|-----------------|
E|-2-2-2-2-2-2-2-2-|-2-2-2-2-2-2-7-6-|-5-5-5-5-8-8-8-8-|
B|-0-0-0-0-0-0-0-0-|-0-0-0-0-0-0-5-4-|-3-3-3-3-6-6-6-6-|

 [Bridge] 2:01
B|-----------------|
G|-----------------|
D|-6-------7---8---|
A|-6---7---7---8---|
E|-4---7---5---6---|
B|-----5-----------|


 [Interlude] 2:04
B|---------------------------------|-------------------------------------|
G|---------------------------------|-------------------------------------|
D|---------------------------------|-------------------------------------|
A|---------------------------------|-------------------------------------|
E|---------7-7-7-7-6-6-6-6-7-7-7-7-|---------7-7-7-7-10-10-10-10-8-8-8-8-|
B|-0-0-0-0-------------------------|-0-0-0-0-----------------------------|
pm . . . . . . . . . . . . . . . .   . . . . . . . . . . . . . . . . . .

B|---------------------------------|---------------------------------|
G|---------------------------------|---------------------------------|
D|---------------------------------|---------------------------------|
A|---------------------------------|---------------------------------|
E|---------7-7-7-7-6-6-6-6-7-7-7-7-|-2-2-2-2-3-3-3-3-0-0-0-0---------|
B|-0-0-0-0-------------------------|-------------------------2-2-2-2-|
pm . . . . . . . . . . . . . . . .   . . . . . . . . . . . . . . . .

B|---------------------------------|-------------------------------------|
G|---------------------------------|-------------------------------------|
D|---------------------------------|-------------------------------------|
A|---------------------------------|-------------------------------------|
E|---------7-7-7-7-6-6-6-6-7-7-7-7-|---------7-7-7-7-10-10-10-10-8-8-8-8-|
B|-0-0-0-0-------------------------|-0-0-0-0-----------------------------|
pm . . . . . . . . . . . . . . . .   . . . . . . . . . . . . . . . . . .

B|---------------------------------|---------------------------------|
G|---------------------------------|---------------------------------|
D|---------------------------------|---------------------------------|
A|---------------------------------|---------------------------------|
E|---------7-7-7-7-6-6-6-6-7-7-7-7-|-2-2-2-2-3-3-3-3-0-0-0-0---------|
B|-0-0-0-0-------------------------|-------------------------2-2-2-2-|
pm . . . . . . . . . . . . . . . .   . . . . . . . . . . . . . . . .

B|---------------------------------|-------------------------------------|
G|---------------------------------|-------------------------------------|
D|---------------------------------|-------------------------------------|
A|---------------------------------|-------------------------------------|
E|---------7-7-7-7-6-6-6-6-7-7-7-7-|---------7-7-7-7-10-10-10-10-8-8-8-8-|
B|-0-0-0-0-------------------------|-0-0-0-0-----------------------------|
pm . . . . . . . . . . . . . . . .   . . . . . . . . . . . . . . . . . .

B|---------------------------------|---------------------------------|
G|---------------------------------|---------------------------------|
D|---------------------------------|---------------------------------|
A|---------------------------------|---------------------------------|
E|---------7-7-7-7-6-6-6-6-7-7-7-7-|-2-2-2-2-3-3-3-3-0-0-0-0---------|
B|-0-0-0-0-------------------------|-------------------------2-2-2-2-|
pm . . . . . . . . . . . . . . . .   . . . . . . . . . . . . . . . .

  2:29
B|-------------------------|-------------------------|
G|-------------------------|-------------------------|
D|-------------------------|-------------------------|
A|-------------------------|-------------------------|
E|-------------------------|-------------------5-----|
B|-3-3-3-3-3-3-3-3-3-6-5-6-|-3-3-3-3-3-3-6-5-6---6-5-|
pm . . . . . . . . . . . .   . . . . . . . . . . . . 

B|-------------------------|-------------------------|
G|-------------------------|-------------------------|
D|-------------------------|-------------------------|
A|-------------------------|-------------------------|
E|-------------------------|-------------------------|
B|-3-3-3-3-3-3-3-3-3-6-5-6-|-0-0-0-0-0-0-0-0-0-0-0-0-|
pm . . . . . . . . . . . .   . . . . . . . . . . . .

B|-------------------------|-------------------------|
G|-------------------------|-------------------------|
D|-------------------------|-------------------------|
A|-------------------------|-------------------------|
E|-------------------------|-------------------3-----|
B|-1-1-1-1-1-1-1-1-1-4-3-4-|-1-1-1-1-1-1-4-3-4---4-3-|
pm . . . . . . . . . . . .   . . . . . . . . . . . . 

B|-------------------------|
G|-------------------------|
D|-------------------------|
A|-------------------------|
E|-------------------------|
B|-1-1-1-1-1-1-1-1-1-4-3-4-|
pm . . . . . . . . . . . .  
 
  2:44
B|---------------------------------|-------------------------------------|
G|---------------------------------|-------------------------------------|
D|---------------------------------|-------------------------------------|
A|---------------------------------|-------------------------------------|
E|---------7-7-7-7-6-6-6-6-7-7-7-7-|---------7-7-7-7-10-10-10-10-8-8-8-8-|
B|-0-0-0-0-------------------------|-0-0-0-0-----------------------------|
pm . . . . . . . . . . . . . . . .   . . . . . . . . . . . . . . . . . .

B|---------------------------------|---------------------------------|
G|---------------------------------|---------------------------------|
D|---------------------------------|---------------------------------|
A|---------------------------------|---------------------------------|
E|---------7-7-7-7-6-6-6-6-7-7-7-7-|-2-2-2-2-3-3-3-3-0-0-0-0---------|
B|-0-0-0-0-------------------------|-------------------------2-2-2-2-|
pm . . . . . . . . . . . . . . . .   . . . . . . . . . . . . . . . .

B|---------------------------------|-------------------------------------|
G|---------------------------------|-------------------------------------|
D|---------------------------------|-------------------------------------|
A|---------------------------------|-------------------------------------|
E|---------7-7-7-7-6-6-6-6-7-7-7-7-|---------7-7-7-7-10-10-10-10-8-8-8-8-|
B|-0-0-0-0-------------------------|-0-0-0-0-----------------------------|
pm . . . . . . . . . . . . . . . .   . . . . . . . . . . . . . . . . . .

B|---------------------------------|---------------------------------|
G|---------------------------------|---------------------------------|
D|---------------------------------|---------------------------------|
A|---------------------------------|---------------------------------|
E|---------7-7-7-7-6-6-6-6-7-7-7-7-|-2-2-2-2-3-3-3-3-0-0-0-0---------|
B|-0-0-0-0-------------------------|-------------------------2-2-2-2-|
pm . . . . . . . . . . . . . . . .   . . . . . . . . . . . . . . . .

B|---------------------------------|-------------------------------------|
G|---------------------------------|-------------------------------------|
D|---------------------------------|-------------------------------------|
A|---------------------------------|-------------------------------------|
E|---------7-7-7-7-6-6-6-6-7-7-7-7-|---------7-7-7-7-10-10-10-10-8-8-8-8-|
B|-0-0-0-0-------------------------|-0-0-0-0-----------------------------|
pm . . . . . . . . . . . . . . . .   . . . . . . . . . . . . . . . . . .

B|---------------------------------|---------------------------------|
G|---------------------------------|---------------------------------|
D|---------------------------------|-4-------5-------2---------------|
A|---------------------------------|-4-------5-------2-------4-------|
E|---------7-7-7-7-6-6-6-6-7-7-7-7-|-2-------3-------0-------4-------|
B|-0-0-0-0-------------------------|-------------------------2-------|
pm . . . . . . . . . . . . . . . .   

 [Bridge] 3:09
B|-----------------|-----------------|-----------------|-----------------|
G|-----------------|-----------------|-----------------|-12--------------|
D|-----------------|-----------------|-----------------|-11--------------|
A|-----11-12~------|-----11-12~------|-----12-11~------|-9---------------| Guitar 1
E|-----------------|-----------------|-----------------|-----------------|
B|-----------------|-----------------|-----------------|-----------------|

B|-----------------|-----------------|-----------------|-----------------|
G|-----------------|-----------------|-----------------|-----------------|
D|-----------------|-----------------|-----------------|-----------------|
A|-----------------|-----------------|-----------------|-5---------------| Guitar 2
E|-4-4-------------|-3-3-------------|-2-2-------------|-5---------------|
B|-2-2-------------|-1-1-------------|-0-0-------------|-3---------------|
pm . .               . .               . .                


 [Verse] 3:18
B|-----------------|-----------------|-----------------|
G|-----------------|-----------------|-----------------|
D|-----------------|-----------------|-----------------|
A|-----------------|-----------------|-----------------|
E|-2-2-2-2-2-2-2-2-|-2-2-2-2-2-2-7-6-|-5-5-5-5-8-8-8-8-|
B|-0-0-0-0-0-0-0-0-|-0-0-0-0-0-0-5-4-|-3-3-3-3-6-6-6-6-|

B|-----------------|-----------------|-----------------|
G|-----------------|-----------------|-----------------|
D|-----------------|-----------------|-----------------|
A|-----------------|-----------------|-----------------|
E|-2-2-2-2-2-2-2-2-|-2-2-2-2-2-2-7-6-|-5-5-5-5-8-8-8-8-|
B|-0-0-0-0-0-0-0-0-|-0-0-0-0-0-0-5-4-|-3-3-3-3-6-6-6-6-|

B|-----------------|-----------------|-----------------|
G|-----------------|-----------------|-----------------|
D|-----------------|-----------------|-----------------|
A|-----------------|-----------------|-----------------|
E|-2-2-2-2-2-2-2-2-|-2-2-2-2-2-2-7-6-|-5-5-5-5-8-8-8-8-|
B|-0-0-0-0-0-0-0-0-|-0-0-0-0-0-0-5-4-|-3-3-3-3-6-6-6-6-|

B|-----------------|-----------------|-----------------|
G|-----------------|-----------------|-----------------|
D|-----------------|-----------------|-----------------|
A|-----------------|-----------------|-----------------|
E|-2-2-2-2-2-2-2-2-|-2-2-2-2-2-2-7-6-|-5-5-5-5-8-8-8-8-|
B|-0-0-0-0-0-0-0-0-|-0-0-0-0-0-0-5-4-|-3-3-3-3-6-6-6-6-|

B|-----------------|-----------------|-----------------|
G|-----------------|-----------------|-----------------|
D|-----------------|-----------------|-----------------|
A|-----------------|-----------------|-----------------|
E|-2-2-2-2-2-2-2-2-|-2-2-2-2-2-2-7-6-|-5-5-5-5-8-8-8-8-|
B|-0-0-0-0-0-0-0-0-|-0-0-0-0-0-0-5-4-|-3-3-3-3-6-6-6-6-|

B|-----------------|-----------------|-----------------|
G|-----------------|-----------------|-----------------|
D|-----------------|-----------------|-----------------|
A|-----------------|-----------------|-----------------|
E|-2-2-2-2-2-2-2-2-|-2-2-2-2-2-2-7-6-|-5-5-5-5-8-8-8-8-|
B|-0-0-0-0-0-0-0-0-|-0-0-0-0-0-0-5-4-|-3-3-3-3-6-6-6-6-|

[Chorus] 3:45
B|-----------------|-----------------|-----------------|-----------------|
G|-----------------|-----------------|-----------------|-----------------|
D|-----------------|-----------------|-----------------|-----------------|
A|-----------------|-----------------|-----------------|-----------------|
E|---------4-4-3-3-|---------2-2-1-1-|-----------------|-----------------|
B|-0-0-0-0---------|-0-0-0-0---------|-0-0-0-0-5-5-4-4-|-3-3-3-3-6-6-6-6-|
pm . . . . . . . .   . . . . . . . .   . . . . . . . .   . . . . . . . .

B|-----------------|-----------------|-----------------|-----------------|
G|-----------------|-----------------|-----------------|-----------------|
D|-----------------|-----------------|-----------------|-----------------|
A|-----------------|-----------------|-----------------|-----------------|
E|---------4-4-3-3-|---------2-2-1-1-|-----------------|-----------------|
B|-0-0-0-0---------|-0-0-0-0---------|-0-0-0-0-5-5-4-4-|-3-3-3-3-6-6-6-6-|
pm . . . . . . . .   . . . . . . . .   . . . . . . . .   . . . . . . . .

B|-----------------|-----------------|-----------------|-----------------|
G|-----------------|-----------------|-----------------|-----------------|
D|-----------------|-----------------|-----------------|-----------------|
A|-----------------|-----------------|-----------------|-----------------|
E|---------4-4-3-3-|---------2-2-1-1-|-----------------|-----------------|
B|-0-0-0-0---------|-0-0-0-0---------|-0-0-0-0-5-5-4-4-|-3-3-3-3-6-6-6-6-|
pm . . . . . . . .   . . . . . . . .   . . . . . . . .   . . . . . . . .

B|-----------------|-----------------|-----------------|-----------------|
G|-----------------|-----------------|-----------------|-----------------|
D|-----------------|-----------------|-----------------|-----------------|
A|-----------------|-----------------|-----------------|-----------------|
E|---------4-4-3-3-|---------2-2-1-1-|-----------------|-----------------|
B|-0-0-0-0---------|-0-0-0-0---------|-0-0-0-0-5-5-4-4-|-3-3-3-3-6-6-6-6-|
pm . . . . . . . .   . . . . . . . .   . . . . . . . .   . . . . . . . .

 [Outro] 4:02
B|-----------------|-----------------|-----------------|-----------------|
G|-----------------|-----------------|-----------------|-----------------|
D|-----------------|-----------------|-----------------|-----------------|
A|-----------------|-----------------|-----------------|-----------------| Guitar 1
E|---------4-4-3-3-|---------2-2-1-1-|-----------------|-----------------|
B|-0-0-0-0---------|-0-0-0-0---------|-0-0-0-0-5-5-4-4-|-3-3-3-3-6-6-6-6-|
pm . . . . . . . .   . . . . . . . .   . . . . . . . .   . . . . . . . .

B|-----------------|-----------------|-----------------|-----------------|
G|-----------------|-----------------|-----------------|-----------------|
D|-----------------|-----------------|-----------------|-----------------|
A|-2---------------|-----------------|-----------------|-5-------8-------| Guitar 2
E|-2---------------|-----------------|-----------------|-5-------8-------|
B|-0---------------|-----------------|-----------------|-3-------6-------|

B|-----------------|-----------------|-----------------|-----------------|
G|-----------------|-----------------|-----------------|-----------------|
D|-----------------|-----------------|-----------------|-----------------|
A|-----------------|-----------------|-----------------|-----------------| Guitar 1
E|---------4-4-3-3-|---------2-2-1-1-|-----------------|---------------2-|
B|-0-0-0-0---------|-0-0-0-0---------|-0-0-0-0-5-5-4-4-|-3-3-3-3-6-6-6-0-|
pm . . . . . . . .   . . . . . . . .   . . . . . . . .   . . . . . . . 

B|-----------------|-----------------|-----------------|-----------------|
G|-----------------|-----------------|-----------------|-----------------|
D|-----------------|-----------------|-----------------|-----------------|
A|-2---------------|-----------------|-----------------|-5-------8-------| Guitar 2
E|-2---------------|-----------------|-----------------|-5-------8-----2-|
B|-0---------------|-----------------|-----------------|-3-------6-----0-|


*****************
pm. = palm mute
/ = slide
~ = vibrato

            
            
Suggest correction
Creating personal tab
Creating personal tab
You can edit any tab online and save it as your Personal.

You can edit, replace or remove any tab part or add personal notes – all changes will be seen only by you.

Personal tabs can be accessed anytime from any device, even offline.
Learn more »
Give kudos to tab author, rate the tab!
1 2 3 4 5
comments
print report bad tab
guest
You may want to rate the tab now too:
select rating
Wanna post a correction for this tab? Suggest correction