Oops, an error
Loading. Please wait.

When The Dead Walk The Earth tab

46 views 1 this week
no commentswrite comment
1 2 3 4 5
3 more votes to show rating
add to favorites
×
Save as Personal and add changes to this tab that will be seen only by you. Learn more ›
×
You can save this tab as Personal to edit and correct it or add notes. All changes will be seen only by you. Learn more »
launch autoscroll
font size
0
reset
how to read this tab
guitar tuner
edit
Autoscroll
slow
fast
+/-
esc
set tempo
stop
 [Intro] 0:00
B|-----------------|-----------------|-----------------|-----------------|
G|-----------------|-----------------|-----------------|-----------------|
D|-----------------|-----------------|-----------------|-----------------|
A|-----------------|-----------------|-----------------|-----------------|
E|-2-2-2-2-2-2-2-2-|-2-2-2-2-2-2-2-2-|-2-2-2-2-2-2-2-2-|-2-2-2-2-2-2-2-2-|
B|-0-0-0-0-0-0-0-0-|-0-0-0-0-0-0-0-0-|-0-0-0-0-0-0-0-0-|-0-0-0-0-0-0-0-0-|
pm . . . . . . . .   . . . . . . . .   . . . . . . . .   . . . . . . . .

B|-----------------|-----------------|-----------------|-----------------|
G|-----------------|-----------------|-----------------|-----------------|
D|-----------------|-----------------|-----------------|-----------------|
A|-----------------|-----------------|-----------------|-----------------|
E|-2-2-2-2-2-2-2-2-|-2-2-2-2-2-2-2-2-|-2-2-2-2-2-2-2-2-|-2-2-2-2-2-2-2-2-|
B|-0-0-0-0-0-0-0-0-|-0-0-0-0-0-0-0-0-|-0-0-0-0-0-0-0-0-|-0-0-0-0-0-0-0-0-|
pm . . . . . . . .   . . . . . . . .   . . . . . . . .   . . . . . . . .

 [Verse] 0:11
B|-----------------|-----------------|-----------------|-----------------|
G|-----------------|-----------------|-----------------|-----------------|
D|-9-----8-----5---|--4--/10--10-9---|-----------------|-----------------|
A|-----------------|-----------------|-----------------|-----------------|
E|-7-----6-----3---|--2--/8---8--7---|-----2-2-2-2-2-2-|-2-2-2-2-2-2-2-2-|
B|-----------------|-----------------|-----0-0-0-0-0-0-|-0-0-0-0-0-0-0-0-|
pm                                         . . . . . .   . . . . . . . .

B|-----------------|-----------------|-----------------|-----------------|
G|-----------------|-----------------|-----------------|-----------------|
D|-9-----8-----5---|--4--/10--10-9---|-----------------|-----------------|
A|-----------------|-----------------|-----------------|-----------------|
E|-7-----6-----3---|--2--/8---8--7---|-----2-2-2-2-2-2-|-2-2-2-2-2-2-2-2-|
B|-----------------|-----------------|-----0-0-0-0-0-0-|-0-0-0-0-0-0-0-0-|
pm                                         . . . . . .   . . . . . . . .
B|-----------------|-----------------|-----------------|-----------------|
G|-----------------|-----------------|-----------------|-----------------|
D|-9-----8-----5---|--4--/10--10-12--|---12---11---10--|--5---/10--10-9--|
A|-----------------|-----------------|-----------------|-----------------|
E|-7-----6-----3---|--2--/8---8--10--|---10---9----8---|--3---/8---8--7--|
B|-----------------|-----------------|-----------------|-----------------|

B|-----------------|-----------------|
G|-----------------|-----------------|
D|-----------------|-----------------|
A|-----------------|-----------------|
E|-----2-2-2-2-2-2-|-2-2-2-2-2-2-2-2-|
B|-----0-0-0-0-0-0-|-0-0-0-0-0-0-0-0-|
pm     . . . . . . . .   . . . . . . 

B|-----------------|-----------------|-----------------|-----------------|
G|-----------------|-----------------|-----------------|-----------------|
D|-9-----8-----5---|--4--/10--10-9---|-----------------|-----------------|
A|-----------------|-----------------|-----------------|-----------------|
E|-7-----6-----3---|--2--/8---8--7---|-----2-2-2-2-2-2-|-2-2-2-2-2-2-2-2-|
B|-----------------|-----------------|-----0-0-0-0-0-0-|-0-0-0-0-0-0-0-0-|
pm                                         . . . . . .   . . . . . . . .

B|-----------------|-----------------|-----------------|-----------------|
G|-----------------|-----------------|-----------------|-----------------|
D|-9-----8-----5---|--4--/10--10-9---|-----------------|-----------------|
A|-----------------|-----------------|-----------------|-----------------|
E|-7-----6-----3---|--2--/8---8--7---|-----2-2-2-2-2-2-|-2-2-2-2-2-2-2-2-|
B|-----------------|-----------------|-----0-0-0-0-0-0-|-0-0-0-0-0-0-0-0-|
pm                                         . . . . . .   . . . . . . . .
B|-----------------|-----------------|-----------------|-----------------|
G|-----------------|-----------------|-----------------|-----------------|
D|-9-----8-----5---|--4--/10--10-12--|---12---11---10--|--5---/10--10-9--|
A|-----------------|-----------------|-----------------|-----------------|
E|-7-----6-----3---|--2--/8---8--10--|---10---9----8---|--3---/8---8--7--|
B|-----------------|-----------------|-----------------|-----------------|

B|-----------------|-----------------|
G|-----------------|-----------------|
D|-----------------|-----------------|
A|-----------------|-----------------|
E|-----2-2-2-2-2-2-|-2-2-2-2-2-2-2-2-|
B|-----0-0-0-0-0-0-|-0-0-0-0-0-0-0-0-|
pm     . . . . . . . .   . . . . . . 

 [Chorus] 0:58
B|-----------------|-----------------|-----------------|-----------------|
G|-----------------|-----------------|-----------------|-----------------|
D|-----------------|-----------------|-----------------|-----------------|
A|-----------------|-----------------|-----------------|-----------------|
E|-7-7-8-8--8-8-8--|-8-8-8-8-8-8-8-8-|-5-5-4-4--4-4-4--|-4-4-4-4-4-4-4-4-|
B|-5-5-6-6--6-6-6--|-6-6-6-6-6-6-6-6-|-3-3-2-2--2-2-2--|-2-2-2-2-2-2-2-2-|

B|-----------------|-----------------|-----------------|-----------------|
G|-----------------|-----------------|-----------------|-----------------|
D|-----------------|-----------------|-----------------|-----------------|
A|-----------------|-----------------|-----------------|-----------------|
E|-7-7-8-8--8-8-8--|-8-8-8-8-8-8-8-8-|-4-4-3-3--3-3-3--|-3-3-3-3-3-3-3-3-|
B|-5-5-6-6--6-6-6--|-6-6-6-6-6-6-6-6-|-2-2-1-1--1-1-1--|-1-1-1-1-1-1-1-1-|

B|-----------------|-----------------|-----------------|-----------------|
G|-----------------|-----------------|-----------------|-----------------|
D|-----------------|-----------------|-----------------|-----------------|
A|-----------------|-----------------|-----------------|-----------------|
E|-6-6-7-7--7-7-7--|-7-7-7-7-7-7-7-7-|-4-4-3-3--3-3-3--|-3-3-3-3-3-3-3-3-|
B|-4-4-5-5--5-5-5--|-5-5-5-5-5-5-5-5-|-2-2-1-1--1-1-1--|-1-1-1-1-1-1-1-1-|

B|-----------------|-----------------------|
G|-----------------|-----------------------|
D|-----------------|-----------------------|
A|-----------------|-----------------------|
E|-6-6-7-7--7-7-7--|-7-7-7-7-7-7-7-7--3--3-|
B|-4-4-5-5--5-5-5--|-5-5-5-5-5-5-5-5--1--1-|

[Verse] 1:20
B|-----------------|-----------------|-----------------|-----------------|
G|-----------------|-----------------|-----------------|-----------------|
D|-9-----8-----5---|--4--/10--10-9---|-----------------|-----------------|
A|-----------------|-----------------|-----------------|-----------------|
E|-7-----6-----3---|--2--/8---8--7---|-----2-2-2-2-2-2-|-2-2-2-2-2-2-2-2-|
B|-----------------|-----------------|-----0-0-0-0-0-0-|-0-0-0-0-0-0-0-0-|
pm                                         . . . . . .   . . . . . . . .

B|-----------------|-----------------|-----------------|-----------------|
G|-----------------|-----------------|-----------------|-----------------|
D|-9-----8-----5---|--4--/10--10-9---|-----------------|-----------------|
A|-----------------|-----------------|-----------------|-----------------|
E|-7-----6-----3---|--2--/8---8--7---|-----2-2-2-2-2-2-|-2-2-2-2-2-2-2-2-|
B|-----------------|-----------------|-----0-0-0-0-0-0-|-0-0-0-0-0-0-0-0-|
pm                                         . . . . . .   . . . . . . . .

B|-----------------|-----------------|-----------------|-----------------|
G|-----------------|-----------------|-----------------|-----------------|
D|-9-----8-----5---|--4--/10--10-12--|---12---11---10--|--5---/10--10-9--|
A|-----------------|-----------------|-----------------|-----------------|
E|-7-----6-----3---|--2--/8---8--10--|---10---9----8---|--3---/8---8--7--|
B|-----------------|-----------------|-----------------|-----------------|

B|-----------------|-----------------|
G|-----------------|-----------------|
D|-----------------|-----------------|
A|-----------------|-----------------|
E|-----2-2-2-2-2-2-|-2-2-2-2-2-2-2-2-|
B|-----0-0-0-0-0-0-|-0-0-0-0-0-0-0-0-|
pm     . . . . . . . .   . . . . . . 

 [Chorus] 1:43
B|-----------------|-----------------|-----------------|-----------------|
G|-----------------|-----------------|-----------------|-----------------|
D|-----------------|-----------------|-----------------|-----------------|
A|-----------------|-----------------|-----------------|-----------------|
E|-7-7-8-8--8-8-8--|-8-8-8-8-8-8-8-8-|-5-5-4-4--4-4-4--|-4-4-4-4-4-4-4-4-|
B|-5-5-6-6--6-6-6--|-6-6-6-6-6-6-6-6-|-3-3-2-2--2-2-2--|-2-2-2-2-2-2-2-2-|

B|-----------------|-----------------|-----------------|-----------------|
G|-----------------|-----------------|-----------------|-----------------|
D|-----------------|-----------------|-----------------|-----------------|
A|-----------------|-----------------|-----------------|-----------------|
E|-7-7-8-8--8-8-8--|-8-8-8-8-8-8-8-8-|-4-4-3-3--3-3-3--|-3-3-3-3-3-3-3-3-|
B|-5-5-6-6--6-6-6--|-6-6-6-6-6-6-6-6-|-2-2-1-1--1-1-1--|-1-1-1-1-1-1-1-1-|

B|-----------------|-----------------|-----------------|-----------------|
G|-----------------|-----------------|-----------------|-----------------|
D|-----------------|-----------------|-----------------|-----------------|
A|-----------------|-----------------|-----------------|-----------------|
E|-6-6-7-7--7-7-7--|-7-7-7-7-7-7-7-7-|-4-4-3-3--3-3-3--|-3-3-3-3-3-3-3-3-|
B|-4-4-5-5--5-5-5--|-5-5-5-5-5-5-5-5-|-2-2-1-1--1-1-1--|-1-1-1-1-1-1-1-1-|

B|-----------------|-----------------------|-----------------|
G|-----------------|-----------------------|-----------------|
D|-----------------|-----------------------|-----------------|
A|-----------------|-----------------------|-----------------|
E|-6-6-7-7--7-7-7--|-7-7-7-7-7-7-7-7--3--3-|-2---------------|
B|-4-4-5-5--5-5-5--|-5-5-5-5-5-5-5-5--1--1-|-0---------------|

[Interlude] 2:09
B|-----------------|-----------------|-----------------|-----------------|
G|-----------------|-----------------|-----------------|-----------------|
D|-----------------|-----------------|-----------------|--5---3----------|
A|-----------------|---------5--4----|---------4--3----|----------3---5--|
E|------------2--1-|--2--3-----------|--2--3-----------|--3---1----------|
B|-0----2--3-------|-----------------|-----------------|----------1---3--|

B|-----------------|-----------------|-----------------|-----------------|
G|-----------------|-----------------|-----------------|-----------------|
D|-----------------|-----------------|-----------------|-----------------|
A|-----------------|---------5--4----|---------4--3----|--5---3----------|
E|------------2--1-|--2--3-----------|--2--3-----------|--3---1---3---5--|
B|-0----2--3-------|-----------------|-----------------|----------1---3--|

B|-----------------|-----------------|-----------------|-----------------|
G|-----------------|-----------------|-----------------|-----------------|
D|-----------------|-----------------|-----------------|--5---3----------|
A|-----------------|-----------------|-----------------|----------3---5--|
E|-2----4--5--9--8-|--4--5---8--7----|--4--5---7--3----|--3---1----------|
B|-0----2--3--7--6-|--2--3---6--5----|--2--3---5--1----|----------1---3--|

B|-----------------|-----------------|-----------------|-----------------|
G|-----------------|-----------------|-----------------|-----------------|
D|-----------------|-----------------|-----------------|--5---3----------|
A|-----------------|-----------------|-----------------|----------3---5--|
E|-2----4--5--9--8-|--4--5---8--7----|--4--5---7--3----|--3---1----------|
B|-0----2--3--7--6-|--2--3---6--5----|--2--3---5--1----|----------1---3--|


 [Solo 1] 2:58
B|-----------------|-----------------|-----------------|-----------------|
G|--13-12-10~------|--10-9-7~--------|-/9--10----------|-----------------|
D|-----------------|-----------------|-----------------|--8-\---5~-------|
A|-----------------|-----------------|--------10~------|-----------------|
E|-----------------|-----------------|-----------------|-----------------|
B|-----------------|-----------------|-----------------|-----------------|

B|-----------------|-----------8~----|-----------------|-----------------|
G|--10-9-7~--------|--9/10\9p7-------|--9-9/12---10~---|-----------------|
D|-----------------|-----------------|-----------------|-----------------|
A|-----------------|-----------------|-----------------|-----------------|
E|-----------------|-----------------|-----------------|-----------------|
B|-----------------|-----------------|-----------------|-----------------|

B|-----------------|-----------------|-------------------|-----------------|
G|--------------5--|----------8~-----|----------------6--|----------8~-----|
D|-3-4-3-3hbr-4----|-3-3hbr-4--------|-3/4-3/4-4hbr-5----|--4hbr-5---------|
A|-----------------|-----------------|-------------------|-----------------|
E|-----------------|-----------------|-------------------|-----------------|
B|-----------------|-----------------|-------------------|-----------------|

B|-----------------|-----------------|-------------------|-----------------|
G|--------------5--|----------/8~----|----------------6--|---------/8~-----|
D|-3-4-3-3hbr-4----|-3-3hbr-4--------|-3/4-3/4-4hbr-5----|--4hbr-5---------|
A|-----------------|-----------------|-------------------|-----------------|
E|-----------------|-----------------|-------------------|-----------------|
B|-----------------|-----------------|-------------------|-----------------|

 [Fill] 3:48
B|-----------------|-----------------|-----------------|
G|-----------------|-----------------|-----------------|
D|--11hb-11~-9~-8~-|-----------------|-----------------|
A|-----------------|-----------------|-----------------|
E|-----------------|-3--3-2--2-2-2-2-|-2-2-2-2-2-2-2-2-|
B|-----------------|-1--1-0--0-0-0-0-|-0-0-0-0-0-0-0-0-|
pm                           . . . .   . .

 [Chorus] 3:55
B|-----------------|-----------------|-----------------|-----------------|
G|-----------------|-----------------|-----------------|-----------------|
D|-----------------|-----------------|-----------------|-----------------|
A|-----------------|-----------------|-----------------|-----------------|
E|-7-7-8-8--8-8-8--|-8-8-8-8-8-8-8-8-|-5-5-4-4--4-4-4--|-4-4-4-4-4-4-4-4-|
B|-5-5-6-6--6-6-6--|-6-6-6-6-6-6-6-6-|-3-3-2-2--2-2-2--|-2-2-2-2-2-2-2-2-|

B|-----------------|-----------------|-----------------|-----------------|
G|-----------------|-----------------|-----------------|-----------------|
D|-----------------|-----------------|-----------------|-----------------|
A|-----------------|-----------------|-----------------|-----------------|
E|-7-7-8-8--8-8-8--|-8-8-8-8-8-8-8-8-|-4-4-3-3--3-3-3--|-3-3-3-3-3-3-3-3-|
B|-5-5-6-6--6-6-6--|-6-6-6-6-6-6-6-6-|-2-2-1-1--1-1-1--|-1-1-1-1-1-1-1-1-|

B|-----------------|-----------------|-----------------|-----------------|
G|-----------------|-----------------|-----------------|-----------------|
D|-----------------|-----------------|-----------------|-----------------|
A|-----------------|-----------------|-----------------|-----------------|
E|-6-6-7-7--7-7-7--|-7-7-7-7-7-7-7-7-|-4-4-3-3--3-3-3--|-3-3-3-3-3-3-3-3-|
B|-4-4-5-5--5-5-5--|-5-5-5-5-5-5-5-5-|-2-2-1-1--1-1-1--|-1-1-1-1-1-1-1-1-|

B|-----------------|--------------------------|
G|-----------------|--------------------------|
D|-----------------|--------------------------|
A|-----------------|--------------------------|
E|-6-6-7-7--7-7-7--|-7-7-7-7-7-7-7-7--3--3--2-|
B|-4-4-5-5--5-5-5--|-5-5-5-5-5-5-5-5--1--1--0-|

 [Under solo 2] 4:18
B|-----------------|-----------------|-----------------|-----------------|
G|-----------------|-----------------|-----------------|-----------------|
D|-----------------|-----------------|-----------------|-----------------|
A|-----------------|-----------------|-----------------|-----------------|
E|-7-7-8-8--8-8-8--|-8-8-8-8-8-8-8-8-|-5-5-4-4--4-4-4--|-4-4-4-4-4-4-4-4-|
B|-5-5-6-6--6-6-6--|-6-6-6-6-6-6-6-6-|-3-3-2-2--2-2-2--|-2-2-2-2-2-2-2-2-|

B|-----------------|-----------------|-----------------|-----------------|
G|-----------------|-----------------|-----------------|-----------------|
D|-----------------|-----------------|-----------------|-----------------|
A|-----------------|-----------------|-----------------|-----------------|
E|-7-7-8-8--8-8-8--|-8-8-8-8-8-8-8-8-|-4-4-3-3--3-3-3--|-3-3-3-3-3-3-3-3-|
B|-5-5-6-6--6-6-6--|-6-6-6-6-6-6-6-6-|-2-2-1-1--1-1-1--|-1-1-1-1-1-1-1-1-|

B|-----------------|-----------------|-----------------|-----------------|
G|-----------------|-----------------|-----------------|-----------------|
D|-----------------|-----------------|-----------------|-----------------|
A|-----------------|-----------------|-----------------|-----------------|
E|-6-6-7-7--7-7-7--|-7-7-7-7-7-7-7-7-|-4-4-3-3--3-3-3--|-3-3-3-3-3-3-3-3-|
B|-4-4-5-5--5-5-5--|-5-5-5-5-5-5-5-5-|-2-2-1-1--1-1-1--|-1-1-1-1-1-1-1-1-|

B|-----------------|--------------------------|
G|-----------------|--------------------------|
D|-----------------|--------------------------|
A|-----------------|--------------------------|
E|-6-6-7-7--7-7-7--|-7-7-7-7-7-7-7-7--3--3--2-|
B|-4-4-5-5--5-5-5--|-5-5-5-5-5-5-5-5--1--1--0-|


***********************************************

pm. = palm mute
/ = slide
p = pull off
h = half
b = bend
r = release

            
            
Suggest correction
Creating personal tab
Creating personal tab
You can edit any tab online and save it as your Personal.

You can edit, replace or remove any tab part or add personal notes – all changes will be seen only by you.

Personal tabs can be accessed anytime from any device, even offline.
Learn more »
Give kudos to tab author, rate the tab!
1 2 3 4 5
comments
print report bad tab
guest
You may want to rate the tab now too:
select rating
Wanna post a correction for this tab? Suggest correction