Oops, an error
Loading. Please wait.

Gorgeous Frankenstein Bass Tab

version 1
version 1

Whole song

Interactive

848 views 1 this week
no commentswrite comment
1 2 3 4 5
3 more votes to show rating
add to favorites
launch autoscroll
font size
0
reset
guitar tuner
Autoscroll
slow
fast
+/-
esc
set tempo
stop
Help us to improve Ultimate-Guitar.com Take our survey!
×
intro
G-------------------------------------------------------------------|
D-------------------------------------------------------------------|
A-------------------------------------------------------------------|
E-12/0~-7~-6~-0~-5~-0~-3~~-3-2-1-0~-7~-6~-0~-5~-3~-2~-3-2-1---------|

G-------------------------------------------------------------------|
D-------------------------------------------------------------------|
A-------------------------------------------------------------------|
E-0~-7~-6~-0~-5~-0~-3~~-3-2-1-0~-7~-6~-0~-5~-3~-2~-3-2-1-0~~--------|

chorus
G---------------------------------|
D---------------------------------|
A---------------------------------|
E-00-3h0-0-7-6--0-5-3--0-333------|

verse
G-----------------------|
D-----------------------|
A-----------------------|
E-00h3-0-00h3-6h5-------|

bridge
G-------------------------------------------|
D-------------------------------------------|
A-------------------------------------------|
E-5-5-5-5-0h7-7-7-7-0h5-5-5-5-0h7-5-3-2-----|

G-------------------------------------------------------------------|
D-------------------------------------------------------------------|
A-------------------------------------------------------------------|
E-5-5-5-5-0h7-7-7-7-0h5-5-5-5-0h55-0h55-0-7-5-3-2-------------------|

chorus
G---------------------------------|
D---------------------------------|
A---------------------------------|
E-00-3h0-0-7-6--0-5-3--0-333------|


G---------------------------------------------|
D---------------------------------------------|
A---------------------------------------------|
E-/5555-xxx-/5555-xxx-/5555-xxx-7-5-3-2-------|

G--------------------------------------------------|
D--------------------------------------------------|
A--------------------------------------------------|
E-/5555-xxx-/5555-xxx-/5555-xxx-7-5-3-2-3-5-3-2----|

chorus
G-----------------------------------|
D-----------------------------------|
A-----------------------------------|
E-00-3h0-0-7-6--0-5-3--0-333--------|

G-----------------------------------|
D-----------------------------------|
A-----------------------------------|
E-003/76~---------------------------|    x4


G---------------------------------|
D---------------------------------|
A---------------------------------|
E-00-3h0-0-7-6--0-5-3--0-333------|

G------------------|
D------------------|
A------------------|
E-033~-033~--------|
Suggest correction
Give kudos to tab author, rate the tab!
1 2 3 4 5
comments
print report bad tab
guest
You may want to rate the tab now too:
select rating
Wanna post a correction for this tab? Suggest correction