Oops, an error
Loading. Please wait.

Gorgeous Frankenstein Bass Tab

version 2
version 2

Whole song

Interactive

595 views 1 this week
no commentswrite comment
1 2 3 4 5
3 more votes to show rating
add to favorites
launch autoscroll
font size
0
reset
guitar tuner
Autoscroll
slow
fast
+/-
esc
set tempo
stop
Help us to improve Ultimate-Guitar.com Take our survey!
×
Author
Difficulty
novice
Too lazy to piece together the parts but this is the whole song

intro
G------------------------------------------------------------|
D------------------------------------------------------------|
A------------------------------------------------------------|
E-12/0~-7~-6~-2~-5~-1~-4~~-3-2-1-0~-7~-6~-2~-5~-1~-0~--------|

chorus
G----------------------------|
D----------------------------|
A----------------------------|
E-0-03h0-0-6-5—03h0-0-000----|

verse
G---------------------|
D---------------------|
A---------------------|
E-00—3p00h3/-6h5------|

Verse ending
G-----------------------|
D-----------------------|
A-----------------------|
E-3-00—3p00h3/-6h5-3p0--|

bridge
G-----------------------------------------|
D-----------------------------------------|
A-----------------------------------------|
E-3-3-3-3-0h5-5-5-5-4p2-2-2-2-0-7-5-3-2---|

G-----------------------------------------|
D-----------------------------------------|
A-----------------------------------------|
E-3-3-3-3-0h5-5-5-5-4p2-2-4p2-2-0-7-5-3-2-|

chorus
G----------------------------|
D----------------------------|
A----------------------------|
E-0-03h0-0-6-5—03h0-0-000----|

G-----------------------------------------|
D-----------------------------------------|
A-----------------------------------------|
E-0000-xxx-0000-xxx-/7777-xxx-7-5-3-2-----

G-----------------------------------------------|
D-----------------------------------------------|
A-----------------------------------------------|
E-0000-xxx-0000-xxx-/7777-xxx-7-5-3-2-3-5-3-2--

chorus
G----------------------------|
D----------------------------|
A----------------------------|
E-0-03h0-0-6-5—03h0-0-000----|

G------------------|
D------------------|
A------------------|
E-00h3/6p5~--------|	x4

chorus
G----------------------------|
D----------------------------|
A----------------------------|
E-0-03h0-0-6-5—03h0-0-000----|

G----------------|
D----------------|
A----------------|
E-00~-00~--------|
Suggest correction
Give kudos to tab author, rate the tab!
1 2 3 4 5
comments
print report bad tab
guest
You may want to rate the tab now too:
select rating
Wanna post a correction for this tab? Suggest correction