Oops, an error
Loading. Please wait.

Made In Hell Bass Tab

599 views 1 this week
no commentswrite comment
1 2 3 4 5
please rate
add to favorites
launch autoscroll
font size
0
reset
guitar tuner
Autoscroll
slow
fast
+/-
esc
set tempo
stop
Help us to improve Ultimate-Guitar.com Take our survey!
×
Difficulty
intermediate
G-------------------------------------------------|
D-------------------------------------------------|
A--------------------------3~------~2-------------|
E-0~--6~--0~--6~--0~--6~------0-0-----0-0---------|

G--------------------------------------------------------------|
D--------------------------------------------------------------|
A----------3^-2^-----------5^-4^----------3^-2^/--7-5-3-235----|
E-0-00-00---------0-00-00---------0-00-00----------------------| 2x

G-------------------------------------------------------------|
D-------------------------------------------------------------|
A-------------------------------------------------------------|
E-5~-3h5~-3h5-6-5-33h5-6-5-3h5~-3h5~-3h5-6-5-33h5-6-5-3-------|

G-------------------------------------------------|
D-------------------------------------------------|
A-2222222222222222-33333333-5-5-577-8-------------|
E-------------------------------------------------|

G--------------------------------------------------------------|
D--------------------------------------------------------------|
A----------3^-2^-----------5^-4^----------3^-2^/--7-5-3-235----|
E-0-00-00---------0-00-00---------0-00-00----------------------| 


G-------------------------------------------------------------|
D-------------------------------------------------------------|
A-------------------------------------------------------------|
E-5~-3h5~-3h5-6-5-33h5-6-5-3h5~-3h5~-3h5-6-5-33h5-6-5-3-------|

G-------------------------------------------------|
D-------------------------------------------------|
A-2222222222222222-33333333-5-5-577-8-------------|
E-------------------------------------------------|

G--------------------------------------------------------------|
D--------------------------------------------------------------|
A----------3^-2^-----------5^-4^----------3^-2^/--7-5-3-235----|
E-0-00-00---------0-00-00---------0-00-00----------------------| 

G-----------------------------|
D-----------------------------|
A-----------------------------|
E-88888888-5555-7777----------| 2x

G---------------------------------------------------|
D---------------------------------------------------|
A---------------------------------------------------|
E-88888888-5555-7777-8p7-875-33-55—--8~-00-7~-00----|

G--------------------------------------------------------------|
D--------------------------------------------------------------|
A----------3^-2^-----------5^-4^----------3^-2^/--7-5-3-235----|
E-0-00-00---------0-00-00---------0-00-00----------------------| 

G-------------------------------------------------------------|
D-------------------------------------------------------------|
A-------------------------------------------------------------|
E-5~-3h5~-3h5-6-5-33h5-6-5-3h5~-3h5~-3h5-6-5-33h5-6-5-3-------|



G-------------------------------------------------|
D-------------------------------------------------|
A-2222222222222222-33333333-5-5-577-8-------------|
E-------------------------------------------------|

G--------------------------------------------------------------|
D--------------------------------------------------------------|
A----------3^-2^-----------5^-4^----------3^-2^/--7-5-3-235----|
E-0-00-00---------0-00-00---------0-00-00----------------------| 

G-----------------------------|
D-----------------------------|
A-----------------------------|
E-88888888-5555-7777----------| 2x

G---------------------------------------------------|
D---------------------------------------------------|
A---------------------------------------------------|
E-88888888-5555-7777-8p7-875-33-55—--8~-00-7~-00----|

G------------------------------------------------------------------|
D------------------------------------------------------------------|
A------------------------------------------------------------------|
E-00-0p6~-00-0p6~-00-0p6~-6h0~-00-0p6~-00-0p6~-00-0p6-08~-00-7~-00--|

G-----------------------------|
D-----------------------------|
A-----------------------------|
E-88888888-5555-7777----------| 2x

G-------------------------------------|
D-------------------------------------|
A-------------------------------------|
E-88888888-5555-7777-8p7-875-33-55----|

G-----------------------------|
D-----------------------------|
A-----------------------------|
E-88888888-5555-7777----------| 2x

G----------------------------------------------------------------------------|
D----------------------------------------------------------------------------|
A----------------------------------------------------------------------------|
E-88888888-5555-7777-8p7-875-33-55-8p7-875-33-55-8p7-875-33-55-8p7-875-33-55-|

G------------------------------------------------------------------------------|
D------------------------------------------------------------------------------|
A------------------------------------------------------------------------------|
E-8~-00-7~-00-0p6~-00-0p6~-00-0p6-08~-00-7~-00-0p6~-00-0p6~-00-0p6-08~-00-7~-00

Suggest correction
Give kudos to tab author, rate the tab!
1 2 3 4 5
comments
print report bad tab
guest
You may want to rate the tab now too:
select rating
Please do not post tabs as comments. Select "correction" instead!