Oops, an error
Loading. Please wait.

Man Or Monster Bass Tab

319 views 1 this week
no commentswrite comment
1 2 3 4 5
please rate
add to favorites
launch autoscroll
font size
0
reset
guitar tuner
Autoscroll
slow
fast
+/-
esc
set tempo
stop
Help us to improve Ultimate-Guitar.com Take our survey!
×
Author
Difficulty
novice
chorus
G--------------------------------------|
D--------------------------------------|
A--------------------------------------|
E-00-3/--76~--00-3/--76~--00-3/--76~---|

G---------------------------|
D---------------------------|
A---------------------------|
E-3h5p3h5-2h4p2~------------|

verse
G---------------------------|
D---------------------------|
A---------------------------|
E-00h30-00h30-00h30---------|

G---------------------------|
D---------------------------|
A---------------------------|
E-3h5p3h5-2h4p2~------------|

Bridge:
(fast)
G--------------------------------------|
D--------------------------------------|
A--------------------------------------|
E-4p200-4p200-4p200-4p200-4p200-4p200--|

G---------------------------|
D---------------------------|
A---------------------------|
E-666-555-333---------------|

G---------------------------|
D---------------------------|
A---------------------------|
E-0003h0-0003h0-0003h0------|

G---------------------------|
D---------------------------|
A---------------------------|
E-666-555-333-0~------------|

G---------------------------|
D---------------------------|
A---------------------------|
E-6-6-6-0~-6-6-6-0~---------|

G------------------------------|
D------------------------------|
A------------------------------|
E-0-0333h0-0333h0-0333h0-6-6-6-|	x3

G----------------------------------|
D----------------------------------|
A----------------------------------|
E-0-6-5-0-3h5-3h5p0-6-5-0-3-5-3-0--|
Suggest correction
Give kudos to tab author, rate the tab!
1 2 3 4 5
comments
print report bad tab
guest
You may want to rate the tab now too:
select rating
Wanna post a correction for this tab? Suggest correction