Oops, an error
Loading. Please wait.

A World To Win Tab

version 1
version 1

Whole song

Interactive

14,898 views 18 this week
1 commentread comment
1 2 3 4 5
x 9
add to favorites
launch autoscroll
font size
0
reset
how to read this tab
guitar tuner
Autoscroll
slow
fast
+/-
esc
set tempo
stop
Artist: Gorgoroth
Song: A world to win
Album: Incipit Satan

Tabbed by elc (elc@o2.pl;elc@onet.pl)

[Riff 1]
"normal" picking
e|-------------------------------------------------|
B|-------------------------------------------------|
G|-------------------------------------------------|
D|-------6-5-3-------6-5-3-------6-5-3-------6-5-3-|
A|-3-333-------3-333-------3-333-------3-333-------|
E|-------------------------------------------------|

e|-------------------------------------------------|
B|-------------------------------------------------|
G|-------------------------------------------------|
D|-------6-5-3-------6-5-3-------6-5-3-------6-5-3-|
A|-6-666-------6-666-------6-666-------6-666-------|
E|-------------------------------------------------|

e|-------------------------------------------------|
B|-------------------------------------------------|
G|-------------------------------------------------|
D|-------6-5-3-------6-5-3-------6-5-3-------6-5-3-|
A|-3-333-------3-333-------3-333-------3-333-------|
E|-------------------------------------------------|

e|-------------------------------------------------|
B|-------------------------------------------------|
G|-------------------------------------------------|
D|-------6-5-3-------6-5-3-------8-6-5-------6-5---|
A|-6-666-------6-666-------8-888-------5-555-----8-|
E|-------------------------------------------------|

e|-------------------------------------------------|
B|-------------------------------------------------|
G|-------------------------------------------------|
D|-------6-5---------6-5-3-------6-5-3-------5-3-1-|
A|-6-666-----8-3-333-------5-555-------1-111-------|
E|-------------------------------------------------|

[Riff 2] 
"normal" picking
e|-------------------------------------------------|
B|-------------------------------------------------|
G|-------------------------------------------------|
D|-------------------------------------------------|
A|-3-333-3-333-3-333-3-333-3-333-3-333-3-333-3-333-|
E|-------------------------------------------------|

e|-------------------------------------------------|
B|-------------------------------------------------|
G|-------------------------------------------------|
D|-------------------------------------------------|
A|-6-666-6-666-6-666-6-666-6-666-6-666-6-666-6-666-|
E|-------------------------------------------------|

e|-------------------------------------------------|
B|-------------------------------------------------|
G|-------------------------------------------------|
D|-------------------------------------------------|
A|-3-333-3-333-3-333-3-333-3-333-3-333-3-333-3-333-|
E|-------------------------------------------------|

e|-------------------------------------------------|
B|-------------------------------------------------|
G|-------------------------------------------------|
D|-------------------------------------------------|
A|-6-666-6-666-6-666-6-666-8-888-8-888-5-555-5-555-|
E|-------------------------------------------------|

e|-------------------------------------------------|
B|-------------------------------------------------|
G|-------------------------------------------------|
D|-------------------------------------------------|
A|-6-666-6-666-3-333-3-333-5-555-5-555-1-111-1-111-|
E|-------------------------------------------------|

[Riff 3] 
(same as riff 1, only ending is a bit different)
e|-------------------------------------------------|
B|-------------------------------------------------|
G|-------------------------------------------------|
D|-------6-5-3-------6-5-3-------6-5-3-------6-5-3-|
A|-3-333-------3-333-------3-333-------3-333-------|
E|-------------------------------------------------|

e|-------------------------------------------------|
B|-------------------------------------------------|
G|-------------------------------------------------|
D|-------6-5-3-------6-5-3-------6-5-3-------6-5-3-|
A|-6-666-------6-666-------6-666-------6-666-------|
E|-------------------------------------------------|

e|-------------------------------------------------|
B|-------------------------------------------------|
G|-------------------------------------------------|
D|-------6-5-3-------6-5-3-------6-5-3-------6-5-3-|
A|-3-333-------3-333-------3-333-------3-333-------|
E|-------------------------------------------------|

e|-------------------------------------------------|
B|-------------------------------------------------|
G|-------------------------------------------------|
D|-------6-5-3-------6-5-3-------8-6-5-------6-5---|
A|-6-666-------6-666-------8-888-------5-555-----8-|
E|-------------------------------------------------|

e|-------------------------------------------------|
B|-------------------------------------------------|
G|-------------------------------------------------|
D|-------6-5---------6-5-3-------------3-----5-----|
A|-6-666-----8-3-333-------5-----6-----------------|
E|-------------------------------------------------|

[Riff 4] 
"normal" picking,
e|-------------------------------------------------|
B|-------------------------------------------------|
G|-5---5-8-7-5-5---5-8-7-5-------8-7-5-------8-7-5-|
D|-------------------------6-----------8-----------|
A|-------------------------------------------------|
E|-------------------------------------------------|

e|-------------------------------------------------|
B|-------------------------8-----6-----4-----6-----|
G|-5---5-8-7-5-5---5-8-7-5-------------------------|
D|-------------------------------------------------|
A|-------------------------------------------------|
E|-------------------------------------------------|

e|-------------------------------------------------|
B|-------------------------------------------------|
G|-5---5-8-7-5-5---5-8-7-5-------8-7-5-------8-7-5-|
D|-------------------------6-----------8-----------|
A|-------------------------------------------------|
E|-------------------------------------------------|

e|-------------------------------------------------|
B|-------------------------6-----4-----3-----4-----|
G|-5---5-8-7-5-5---5-8-7-5-------------------------|
D|-------------------------------------------------|
A|-------------------------------------------------|
E|-------------------------------------------------|

[Riff 5] 
"normal" picking in first part, tremolo at the end
e|-------------------------------------------------|
B|-------------------------------------------------|
G|-5-555-5-555-5-555-5-555-------------------------|
D|-------------------------6-666-6-666-8-888-8-888-|
A|-------------------------------------------------|
E|-------------------------------------------------|

e|-------------------------------------------------|
B|-------------------------------------------------|
G|-5-555-5-555-5-555-5-555-------------------------|
D|-------------------------6-666-6-666-8-888-8-888-|
A|-------------------------------------------------|
E|-------------------------------------------------|

e|-------------------------------------------------|
B|-------------------------------------------------|
G|-5-555-5~----5-555-5~----------------------------|
D|-------------------------6-666-6-666-8-888-8-888-|
A|-------------------------------------------------|
E|-------------------------------------------------|

e|-------------------------------------------------|
B|-5-555-5~----5-555-5~----------------------444444|
G|-------------------------666666555555888888------|
D|-------------------------------------------------|
A|-------------------------------------------------|
E|-------------------------------------------------|

[Riff 6] 
tremolo picking
e|-------------------------------------------------|
B|-------------------------------------------------|
G|-5-5-5-5-5-5-5-5-5-5-5-5-------------------------|
D|-------------------------6-6-6-6-6-6-8-8-8-8-8-8-|
A|-------------------------------------------------|
E|-------------------------------------------------|

e|-------------------------------------------------|
B|-------------------------------------------------|
G|-5-5-5-8-8-8-------5-5-5-------5-5-5-------4-4-4-|
D|-------------6-6-6-------5-5-5-------5-5-5-------|
A|-------------------------------------------------|
E|-------------------------------------------------|

[Riff 4] 
"normal" picking
e|-------------------------------------------------|
B|-------------------------------------------------|
G|-5---5-8-7-5-5---5-8-7-5-------8-7-5-------8-7-5-|
D|-------------------------6-----------8-----------|
A|-------------------------------------------------|
E|-------------------------------------------------|

e|-------------------------------------------------|
B|-------------------------8-----6-----4-----6-----|
G|-5---5-8-7-5-5---5-8-7-5-------------------------|
D|-------------------------------------------------|
A|-------------------------------------------------|
E|-------------------------------------------------|

e|-------------------------------------------------|
B|-------------------------------------------------|
G|-5---5-8-7-5-5---5-8-7-5-------8-7-5-------8-7-5-|
D|-------------------------6-----------8-----------|
A|-------------------------------------------------|
E|-------------------------------------------------|

e|-------------------------------------------------|
B|-------------------------6-----4-----3-----4-----|
G|-5---5-8-7-5-5---5-8-7-5-------------------------|
D|-------------------------------------------------|
A|-------------------------------------------------|
E|-------------------------------------------------|

[Riff 7] 
"bridge"-like riff, sorry for underlined part - 100-1077945768-|ncorect
e|---------------------------------------------------------------------|
B|---------------------------------------------------------------------|
G|-5-555-5-555-5-555-5-555---------------------------------------------|
D|-------------------------6-666-6h8p6p5-------------------------------|
A|---------------------------------------8-6-5-------------------------|
E|-------------------------------^^^^^^^^^^^^^-------------------------|

e|-------------------------------------------------|
B|-------------------------------------------------|
G|-------------------------------4~----------------|
D|-------------------------------------------------|
A|-3-5-6-3-----3-5-6-3-----3-5-6-------------333333|
E|-------------------------------------------------|
pm . . . .     . . . .     . . .             ......

[Riff 8] 
tremolo picking
e|-------------------------------------------------|
B|-------------------------------------------------|
G|-------------------------------------4-4-4-4-4-4-|
D|-------------------------------------------------|
A|-3-3-3-6-5-3-6-5-3-2-3-5-3-3-3-6-5-3-------------|
E|-------------------------------------------------|
pm . . . . . . . . . . . . . . . . . .

e|-------------------------------------------------|
B|-------------------------------------------------|
G|-------------------------------------------------|
D|-------------------------------------------------|
A|-3-3-3-6-5-3-6-5-3-2-3-5-3-3-3-6-6-6-2-2-2-5-5-5-|
E|-------------------------------------------------|
pm . . . . . . . . . . . . . . . . . . . . . . . .


************************************

| ~  Vibrato
| h  Hammer-on
| p  Pull-off
| .  Staccato

************************************
Suggest correction
comments
print report bad tab
1 comment total.
0 reply
cincit2 116 Oct 19, 2006 11:46 PM

Perfect

guest
You may want to rate the tab now too:
select rating
Wanna post a correction for this tab? Suggest correction