Oops, an error
Loading. Please wait.

Bergtrollets Hevn Tab

version 1
version 1

Whole song

Interactive

3,226 views 12 this week
no commentswrite comment
1 2 3 4 5
please rate
add to favorites
launch autoscroll
font size
0
reset
how to read this tab
guitar tuner
Tab Pro tools
  • play this tab
  • loop segment
  • change instrument
  • show fretboard
  • metronome
×
Best way to learn
"Bergtrollets Hevn"
Autoscroll
slow
fast
+/-
esc
set tempo
stop
Artist: Gorgoroth
Title: Bergtrollets Hevn
Album: Antichrist

Tabbed by elc (elc@o2.pl;elc@onet.pl)

As with any Gorgoroth song, the sound is very distorted and because of this
hearing every note is sometimes imposible. If U find some riff incorect, feel
free to tell me.

Riff 1, "normal" picking,
e|-------------------------------------------------------------------------
B|-------------------------------------------------------------------------
G|-------------------------------------------------------------------------
D|-9-----------9-----------8-----------8-----------7-----------7-----------
A|-7---7-7-7-7-7---7-7-7-7-6---6-6-6-6-6---6-6-6-6-5---5-5-5-5-5---5-5-5-5-
E|-------------------------------------------------------------------------

e|-------------------|
B|-------------------|
G|-------------------|
D|-5-----------5/4-4-|
A|-3---3-3-3-3-3/2-2-|
E|-------------------|

e|-------------------------------------------------------------------------
B|-------------------------------------------------------------------------
G|-------------------------------------------------------------------------
D|-9-----------9-----------4-----------4-----------4-----------4-----------
A|-7---7-7-7-7-7---7-7-7-7-6---6-6-6-6-6---6-6-6-6-5---5-5-5-5-5---5-5-5-5-
E|-------------------------------------------------------------------------

e|-------------------|
B|-------------------|
G|-------------------|
D|-5-----------5/4-4-|
A|-3---3-3-3-3-3/2-2-|
E|-------------------|

Riff 2, tremolo picking,
e|--------------------|
B|--------------------|
G|--------------------|
D|-9-7-9--5-9-7-9--10-|
A|-7-9-10-7-7-9-10-12-|
E|--------------------|


Riff 3, tremolo picking,
e|-------------------------------------------------------------------------------|
B|---------------------------------------------------7-------------------7-------|
G|---------------------------------------------------6-------------------6-------|
D|---------------7-------------------7---9---9-7-5-4-4---7---9---9-7-5-4-4---7---|
A|-2-----5/4-4---5-------2-0-----4---5---7---------------5---7---------------5---|
E|-0-----3/2-2-------0-------3-2-2-----------------------------------------------|

Riff 4, tremolo picking, quite hard to hear, last note is not played second time,
e|-----------------------------------------------------------------|
B|-----------------------------------------------------------------|
G|-----------------------------------------------------------------|
D|---2---2---2-----------------------------------------------------|
A|-----2---3---3-2-0-0-3-2-----------------2-------3-5-3-2---------|
E|-0-----------------------5-3-2-3-0-2-3-5---3-2-3---------5-3-2-3-|

Riff 5, tremolo picking, almost imposible to hear, third time is a bit
different,
e|---------------------------------------------|
B|---------------------------------------------|
G|-------9-1112119-----------------------------|
D|-----9-----------10----1210--9---------------|
A|---7---------------------------12------------|
E|-0-------------------------------------------|

Riff 6, tremolo picking, also hard to hear,
e|----------------------------------|
B|----------------------------------|
G|----------------------------------|
D|-----9-7-10-----------9-7-10--9-7-|
A|---7----------------7-------------|
E|-0----------------0---------------|
comments
We did not receive enough feedback on this tab! Please rate:
print report bad tab
1 2 3 4 5
I want to post or [tab]
guest
You may want to rate the tab now too:
select rating
Please do not post tabs as comments. Select "correction" instead!