Oops, an error
Loading. Please wait.

Carving A Giant Tab

version 1
version 1

Whole song

Interactive

12,039 views 21 this week
no commentswrite comment
1 2 3 4 5
please rate
add to favorites
launch autoscroll
font size
0
reset
how to read this tab
guitar tuner
Tab Pro tools
  • play this tab
  • loop segment
  • change instrument
  • show fretboard
  • metronome
×
Best way to learn
"Carving A Giant"
Autoscroll
slow
fast
+/-
esc
set tempo
stop
Difficulty
Tuning
intermediate
D G C F A D
Guitars tuned to D Standard (One/Full Step Down)


I couldn't be assed to put up the intro riff, cuz i think my version sounds shitty ^_^

 
Second Riff

 
D|---0~--------0~--------0~-----------|
A|---0~--------0~--------0~-----------|
F|------------------------------------|
C|-2-----2-------------2----2---------| Repeat as necessary
G|-2-----2---3-----3---2----2-3-3-4-4-|
D|-0-----0---1-----1---0----0-1-1-2-2-|


Third Riff


D|-------------------------------------------------------|
A|-------------------------------------------------------|
F|-------------------------------------------------------|
C|--------3-5-------------------3-5----------------------| Again, repeat as necessary
G|-2------1-3--2-----5-3--2-----1-3--2-----4-5--2----5-3-|
D|-0-x16-------0-x16-3-1--0-x16------0-x8--2-3--0-x4-3-1-|


Chorus Riff


D|----------------------------------------|
A|----------------------------------------|
F|----------------------------------------|
C|----------------------------------------| Once again, repeat
G|-2~-2-5-6-5-2~-2-5s=6-5-2~-5-2~-6-5-6-5-|
D|-0~-0-3-4-3-0~-0-3s=4-3-0~-3-0~-4-3-4-3-|


Outro Riff

D|--------------------0---------------|
A|---0------------------0-------------|
F|-----0------------------0-----------|
C|-2-----2----------2-------2---------| 
G|-2-------4-5-7-4--2---------4-4-----|
D|-0-------2-3-5-2--0---------2-2--1b-|

Repeat, and on the fourth time, instead of just bending the note, use a pinch harmonic ;D


And that's it!! ;)


Norweigan Black Metal FTW \m/-
comments
We did not receive enough feedback on this tab! Please rate:
print report bad tab
1 2 3 4 5
I want to post or [tab]
guest
You may want to rate the tab now too:
select rating
Please do not post tabs as comments. Select "correction" instead!