Oops, an error
Loading. Please wait.

Maaneskyggens Slave Tab

version 2
version 2

Whole song

Interactive

1,111 views 3 this week
no commentswrite comment
1 2 3 4 5
please rate
add to favorites
launch autoscroll
font size
0
reset
how to read this tab
guitar tuner
Autoscroll
slow
fast
+/-
esc
set tempo
stop
Help us to improve Ultimate-Guitar.com Take our survey!
×
Author
Gorgoroth – Måneskyggens Slave
Pentagram, 1995

tremolo pick
|---------------------|
|---------------------|
|---------------------|
|-4----5----6----7----|
|-2----3----4----5----|
|---------------------|

bass line ^
|---------------------------------|
|---4-------5-------5------7-5----|
|-2--2----3--3----4--4----5-------|
|---------------------------------|

tremole pick
|-----------------|
|-----------------|
|-----------------|
|-4---------------|
|-2--------5----4-|
|----------3----2-|

Before the next riff, just hold a G.

|---------4--------------------|
|----------4-------------------|
|-----------4------------------|
|------------------------------|
|-2----5-6--------7----7-7-6-6-|
|-0----3-4--------5----5-5\4-4-|

|--------------------------------|
|--------------------------------|
|---------4----------------------|
|----------6--------7-9-10-9-7---|
|-2----5-6--6-----7------------6-|
|-0----3-4--------5------------4-|

Hold an A, drums count up...

tremolo pick
|-----------------|
|-----------------|
|-----------------|
|-----------------|
|-7--------3----2-|
|-5--------1----0-|

rythm guitar ^ tremolo pick
|-----------------------------|
|-----------------------------|
|-----------------------------|
|-----------------------------|
|------7-8--7-5------3-2----2-|
|-5-------------1--------0----|

tremolo pick
|---------------------------|
|---------------------------|
|-9-------------------------|
|-7-------10--7--10----9----|
|----------8--5--8-----7----|
|---------------------------|

normal pick
|------------------------------|
|------------------------------|
|------------------------------|
|--2---------------------------|
|-0-3-2-5-3-2-0--3-2-3-5-3-2---|
|---------------1------------4-|

|----------------------------|
|----------------------------|
|----------------------------|
|--2--------------------2----|
|-0-3-2-5-3-2-0--3-2-3-5-3-2-|
|---------------1------------|

|-----------------------------|
|-----------------------------|
|-----------------------------|
|--2--------------------2-3-2-|
|-0-3-2-5-3-2-0--3-2-3-5------|
|---------------1-------------|

These ^ riffs continue one more round with tremolo pick
while there are some drum-rolls and stuff, then when the whole 
band joins, they play it an octave higher.
(x = 10!!!)
|--------------------------|
|--------------------------|
|--9---7------------7------|
|-7-x-7-x-9-7--x-9-x-x-9-6-|
|-------------8------------|
|--------------------------|

|---------------------------|
|---------------------------|
|--9---7------------7-9-x-9-|
|-7-x-7-x-9-7--x-9-x--------|
|-------------8-------------|
|---------------------------|

This riff is difficult to hear, but it goes to times
between the riffs over.
tremolo pick
|-----------------------------------------|
|-----------------------------------------|
|-----------------------------------------|
|-7--9-10-9-7--9-10-9----9-10-9----9-10-9-|
|---------------------8---------7---------|
|-----------------------------------------|

tremolo pick
|--------------------------|
|--------------------------|
|-9----------------11----8-|
|-7-------10--------9----6-|
|----------8---------------|
|--------------------------|

Enjoy!
Suggest correction
Give kudos to tab author, rate the tab!
1 2 3 4 5
comments
print report bad tab
guest
You may want to rate the tab now too:
select rating
Wanna post a correction for this tab? Suggest correction