Oops, an error
Loading. Please wait.

Rite Of Infenal Invocation Tab

1,790 views 1 this week
no commentswrite comment
1 2 3 4 5
1 last vote to show rating
add to favorites
launch autoscroll
font size
0
reset
how to read this tab
guitar tuner
Autoscroll
slow
fast
+/-
esc
set tempo
stop
Help us to improve Ultimate-Guitar.com Take our survey!
×
Difficulty
intermediate
Artist:   GORGOROTH
Title:    The Rite Of Infernal Invocation
Album: Under The Sign Of Hell

Tabbed By: Leigh  (gorgoroth_mwuahaha@hotmail.com)

Tuning: D G C F A D


   gtr 1, Riff 1. Tremolo                             x8
| |----------------------------------------------------|
| |----------------------------------------------------|
| |----------------------------------------------------|
| |--7----10----7----9----7---------------7------------|
| |--------------------------------10------------------|
| |----------------------------------------------------|
| |
| | grt 2 Riff 1 Tremolo                                 x3           x1
| |------------------------------------------------------|  |--------|
| |------------------------------------------------------|  |--------|
| |------------------------------------------------------|  |--------|
| |---77777777777777777777777----------------------------|  |--------|
| |------------------------------------------------------|  |---8"---|
| |------------------------------------------------------|  |--------|
gtr 2 plays  through the above twice


   gtr 1, Riff 2 part A, Tremolo
| |----------------------------------------------------------------------------------------------------------|
| |----------------------------------------------------------------------------------------------------------|
| |----------------------------------------------------------------------------------------------------------|
| |---7-----10-----7-----9-----7-------------7-----9-----7-----10-----7-----9-----7-------------7------------|
| |--------------------------------------10----------------------------------------------10------------------|
| |----------------------------------------------------------------------------------------------------------|
| |
| |
| | gtr 2, Riff 2 part A 
| |---------------------------------------------------------------------------------------------------------------|
| |---------------------------------------------------------------------------------------------------------------|
| |---------------------------------------------------------------------------------------------------------------|
| |---777777777777777777777777777777777777777777777777777777777777------------------------------------------------|
| |---000000000000000000000000000000000000000000000000000000000000------------------------------------------------|
| |---------------------------------------------------------------------------------------------------------------|
| |
| |
| | gtr 1, Riff 2, part B, Tremolo                       
| |----------------------------------------------------|   
| |----------------------------------------------------|   
| |----------------------------------------------------|   
| |---7-----10-----7-----9-----7-------------7---------|   
| |--------------------------------------10------------|   
| |----------------------------------------------------|    
| |
| |
| | gtr 2, Riff 2 part B  Tremolo                end #1                                         end #2   
| |----------------------------------------------------|----------------------------------------------|
| |----------------------------------------------------|----------------------------------------------|
| |----------------------------------------------------|----------------------------------------------|
| |---10101010101010101010101010----7-------10---13----|---10101010101010101010-----------------------|
| |---8-8-8-8-8-8-8-8-8-8-8-8-8-----5-------8----11----|---8-8-8-8-8-8-8-8-8-8-----88888888888888888--|
| |----------------------------------------------------|---------------------------66666666666666666--|
 

   Riff 3, Tremolo ,  both guitar's
| |----------------------------------------------------------|------------------------------------------------------------------------|
| |----------------------------------------------------------|------------------------------------------------------------------------|
| |----------------------------------------------------------|------------------------------------------------------------------------| 
| |-----------------------------------------------------6~---|-------------------------------------------------------------12"--------|
| |---7-----------7--8--7-------7--10--7------7---------6~---|-----7--------7--8--7------------7--------10"------13"-------10"--------|
| |----------8----------------8------------------8------4~---|-----------8----------------8-------------8"-------11"------------------|
 

   fill 1
| |-----------------------------------------------------------------|
| |-----------------------------------------------------------------|
| |-----------------------------------------------------------------|
| | ----------------------------------------------------------------|
| |----7777777777777777-666-999--777777777777777777777777777777777--|
| |-----------------------------------------------------------------|
                                              

 Riff 4         repeat with alt. endings (1&2)                                                     end #1
| |------------------------------------------------------------------------|-----------------------------|
| |------------------------------------------------------------------------|-----------------------------|
| |------------------------------------------------------------------------|-5------5--------2-------2---|
| |---2-----2-----2-----2-----2-----2-----2-----2-----2-----2-----2-----2--|-5------5--------2-------2---|
| |---2-----2-----2-----2-----2-----2-----2-----2-----2-----2-----2-----2--|-3------3--------0-------0---|
| |---0-x-x-0-x-x-0-x-x-0-x-x-0-x-x-0-x-x-0-x-x-0-x-x-0-x-x-0-x-x-0-x-x-0-x|----x-x-----x-x-----x-x------|
| |
| | 
| |                                         end # 2
| |------------------------------------------------|
| |------------------------------------------------|
| |---2-------2---------5---------7----------------|
| |---2-------2---------5---------7----------------|
| |---0-------0---------3---------5----------------|
| |------x-x-----x-x-------x-x---------------------|



  Fill 2
| |-------------------------------------------|
| |-------------------------------------------|
| |-------------------------------------------|
| |----2~~~~~---------------------2--x--------|
| |----2~~~~~---------------------2--x--------|
| |----0~~~~~---------------------0--x--------|



  Riff 5 , part A
| |------------------------------------------------------------------------------------|
| |------------------------------------------------------------------------4-(bend) ---|
| |------------------------------------------------------------------------------------|
| |---22222222---3p2h3p2-------------------22222222------------------------------------|
| |---22222222-------------------3p2h3p2---22222222---3p2h3p2--------------------------|
| |---00000000-----------------------------00000000------------------------------------|
| |
| |
| | Riff 5 part B
| |--------------------------------------------------------------------------|
| |--------------------------------------------------------------------------|
| |------------------------------------------m--------3--x--3--x-------------|
| |---2222222222222222--------------------x--u--------1--x--1--x-------------|
| |---2222222222222222---3p2h3p2h3p2h3p2--x--t-------------------------------|
| |---0000000000000000--------------------x--e-------------------------------|

  STRUCTURE:
	 Riff#=         Times=
	1...................8
	2...................2
	3...................4
	fill1...............1
	4...................2
	2...................2
	4...................2
	fill2...............1
	5...................6
	4...................4         

i skipped a few minor details but you get the idea. i am workin' on the solo.
Feel free to send comments to my email but dont complain unless u can tab it better!   
GORGOROTH FOREVER!  
		

	
Suggest correction
Give kudos to tab author, rate the tab!
1 2 3 4 5
comments
print report bad tab
guest
You may want to rate the tab now too:
select rating
Wanna post a correction for this tab? Suggest correction