Oops, an error
Loading. Please wait.

Rite Of Infernal Invocation Tab

2,000 views 9 this week
no commentswrite comment
1 2 3 4 5
please rate
add to favorites
launch autoscroll
font size
0
reset
how to read this tab
guitar tuner
Autoscroll
slow
fast
+/-
esc
set tempo
stop
Help us to improve Ultimate-Guitar.com Take our survey!
×
Author
Gorgoroth - Rite of Infernal Invocation
Under the Sign of Hell
Tabbed my HS

intro     tremolo picking
|------------------------------------------------------------|
|------------------------------------------------------------|
|------------------------------------------------------------|
|-5--8-5-7-5---5--5-8-5-7-5---5--5-8-5-7-5---5--5-8-5-7-5--5-|
|------------8--------------8--------------8--------------8--|
|------------------------------------------------------------|

the rest of the instruments join
|-------------------------------------------------------|
|-------------------------------------------------------|
|------------5----------------------------------------6-|
|-5--8-5-7-5---5-8-5-7-5-8-5---5--5--8-5-7-5-8-5-5--8-4-|
|----------------------------8-------------------3--6---|
|-------------------------------------------------------|

|-------------------------------------------------------|
|-------------------------------------------------------|
|------------5------------------------------------------|
|-5--8-5-7-5---5-8-5-7-5-8-5---5--5--8-5-7-5-8-5--5-----|
|----------------------------8--------------------3--6--|
|----------------------------------------------------4--|

this riff is kinda hard to play. . . (tremolo pick)
|-----------------------------------------|
|-----------------------------------------|
|---------------------------------------4-|
|--------3----3-----4--------3-----3--6-2-|
|-------------------4--------------1--4---|
|-3--6-3--6-3---6-3-2-3--6-3---6-3--------|

tremolo picking
|------------------------|
|------------------------|
|------------------------|
|-7----6--10--7----6--10-|
|------------------------|
|------------------------|

|---------------------------------------------|
|---------------------------------------------|
|---------------------------------------------|
|-------------------------------5---5---2---2-|
|-2---2---2---2---2---2---2---2-3---3---0---0-|
|-0-0-0-0-0-0-0-0-0-0-0-0-0-0-0---0---0---0---|
    .   .   .   .   .   .   .     .   .   .
|---------------------------------------------|
|---------------------------------------------|
|---------------------------------------------|
|-------------------------------2---2---5---7-|
|-2---2---2---2---2---2---2---2-0---0---3---5-|
|-0-0-0-0-0-0-0-0-0-0-0-0-0-0-0---0---0---0---|
    .   .   .   .   .   .   .     .   .   .
|----------------------------------------------------------------|
|----------------------------------------------------------------|
|---------------------------------7h87h8-------------------------|
|------------------------------------------------------------8-8-|
|-------7h87h8--------------7h87h8---------------------------6-6-|
|-0"----------7h87h8--0"-----------------0"--------7h87h87h8-----|

Suggest correction
Give kudos to tab author, rate the tab!
1 2 3 4 5
comments
print report bad tab
guest
You may want to rate the tab now too:
select rating
Please do not post tabs as comments. Select "correction" instead!