Oops, an error
Loading. Please wait.

Sorg Bass Tab

version 1
version 1

Whole song

Interactive

1,108 views 3 this week
2 commentsread comments
1 2 3 4 5
3 more votes to show rating
add to favorites
launch autoscroll
font size
0
reset
guitar tuner
Autoscroll
slow
fast
+/-
esc
set tempo
stop
Help us to improve Ultimate-Guitar.com Take our survey!
×
Author
Gogoroth - Sorg Bass tab by Leon Darklove
Enjoy it

Intro
Riff1

G|-------------------------------------------------|
D|-------------------2-----------------------------|  x4 
A|-------1---------2---2---------1-----2-3-2-0-----|
E|-0-2-3---3-2-0-3-------3-0-2-3---3-2---------3-2-|

Coro
Rift2

G|-------------------------------------|
D|-------------------------------------|
A|-------------------------------------| x4
E|-0---0-0---0-0-0----0---0---1--2----3|   

Repeat the intro
Rift3

G|-------------------------------------------------|
D|-------------------2-----------------------------|  x2
A|-------1---------2---2---------1-----2-3-2-0-----|
E|-0-2-3---3-2-0-3-------3-0-2-3---3-2---------3-2-|

Rift4

G|------------------------------------------------|
D|---------7--------------------------------------|
A|--7-7-10---9------7-9-7-------------------------|
D|--------------7-7-------5--5-5-5\-3-3-3--0-0-0-0|

G|------------------------------------------------|
D|---------7--------------------------------------|
A|--7-7-10---9------7-9-7-------------------------|   All x4
D|--------------7-7-------5--5-5-5\3--3-3/7-7-7-7-|

Rift 5

G|------------------------------------------------------------|
D|------------------7-14---12-14-12---10-9-7-----------9------|
A|---7-7-7-8-7-9-10----------------------------10-9-10---10--7|   x1
D|------------------------------------------------------------|

Rift6

G|-------------------------------------------------|
D|-------------------2---0-2-0---------------------|   x5
A|-----------------0-----------3-2-0--------2------|
D|-0-0-0--1-0-2-3---------------------3-2-3---3-0-0|

Outro
Rift 7

G|----------------------|
D|----------------------|
A|-3-2-0--------2-------|
E|--------3-2-3---3--0-0|

Rift 8 Repeat the rift4

G|------------------------------------------------|
D|---------7--------------------------------------|
A|--7-7-10---9------7-9-7-------------------------|
D|--------------7-7-------5--5-5-5\-3-3-3--0-0-0-0|

G|------------------------------------------------|
D|---------7--------------------------------------|
A|--7-7-10---9------7-9-7-------------------------|   All x2
D|--------------7-7-------5--5-5-5\3--3-3/7-7-7-7-|


Riff 9

G|-----------------||-----------------|
D|-----------------||-----------------|
A|-----1--------1--||-----1--------1--|x2
E|0--0---2-0--0---2||0--0---2-0--0---2|


End rift

G|------------------|
D|----------/10--9--|
A|------2-5---------|
E|-0--0-------------|

Play this to end the song 
Suggest correction
Give kudos to tab author, rate the tab!
1 2 3 4 5
comments
print report bad tab
2 comments total.
0 reply
Tanner Streeter 324 Jan 20, 2012 02:56 PM

hey dude make up your mind is the tab E,A,D,G or is it D,A,D,G lol

0 reply
6METAL6BASSIST6 15,252 Jun 30, 2013 10:22 PM

Maybe you gotta tune your bass down really fast to play those few parts lol

guest
You may want to rate the tab now too:
select rating
Wanna post a correction for this tab? Suggest correction