Oops, an error
Loading. Please wait.

Sorg Tab

version 1
version 1

Whole song

Interactive

3,758 views 6 this week
no commentswrite comment
1 2 3 4 5
please rate
add to favorites
launch autoscroll
font size
0
reset
how to read this tab
guitar tuner
Autoscroll
slow
fast
+/-
esc
set tempo
stop
Help us to improve Ultimate-Guitar.com Take our survey!
×
****************************************************************
GORGOROTH

- Sorg -
                           
from the Album

"ANTICHRIST"
****************************************************************


transcribed by P.Schrmann on the 1st Day of the 7th Month of the new Dark-Millenium... Gloria Satanas

e-Mail: AbbathDoom@aol.com


Riff 1
e|-------------------------------------------------|
h|-------------------------------------------------|
G|-------------------------------------------------|
D|-------------------2-----------------------------|
A|-------1---------2---2---------1-----2-3-2-0-----|
E|-0-2-3---3-2-0-3-------3-0-2-3---3-2---------3-2-|

Riff 2
e|-------------------------------------|
h|-------------------------------------|
G|-------------------------------------|
D|-------------------------------------|
A|-7---7--7h10-10--7---7--6-7-8-(10-8)-| ()=only at
E|-0------0------------0---------------|    4th time

Riff 3 

e|------------------------------------|
h|------------------------------------|
G|------------------------------------|
D|-9--9----7--------------------------|
A|-7--7-10---9-6--6-7-7-7-7-77\5-5/99-|
E|-------------7--7-----5-5-55\3-3/77-|

Riff 4
e|------------------------------------------|
h|------------------------------------------|
G|-------------------9--7h9p7---------------|
D|-----------------9----------1097------9---|
A|-7--7-7h8p7-7-910---------------10-910-10-|
E|-0----0-----0-----------------------------|

Bridge
e|--------|
h|--------|
G|--------|
D|-9---9x-|
A|-7---7x-|
E|-0---0x-|

Riff 5
e|------------------|
h|------------------|
G|------------------|
D|-----------/10-9--|
A|-7--10-9-6--------|
E|------------------|

-Listen to the Song for the Structure

----------------------------------------------------------------
For Corrections or Bloody Blasphemy mail to: AbbathDoom@aol.com

WATCH OUT FOR UNLIGHT
at
http://nachtschatten.cjb.net

666 - Gloria Satanas
Suggest correction
Give kudos to tab author, rate the tab!
1 2 3 4 5
comments
print report bad tab
guest
You may want to rate the tab now too:
select rating
Please do not post tabs as comments. Select "correction" instead!