Oops, an error
Loading. Please wait.

Sorg Tab

version 2
version 2

Whole song

Interactive

3,045 views 1 this week
no commentswrite comment
1 2 3 4 5
x 5
add to favorites
launch autoscroll
font size
0
reset
how to read this tab
guitar tuner
Autoscroll
slow
fast
+/-
esc
set tempo
stop
Help us to improve Ultimate-Guitar.com Take our survey!
×
Title:		Sorg
Artist:		Gorgoroth
Album:		Antichrist (1996)
Tab:		Kristoffer Salamonsen

	(Normal Tuning)

Guitar 1 = Distortion
Guitar 2 = Overdrive

Intro 
0:35
Gtr 1 & 2			       ||1,2 and 3 time ||  4th time     |
e|-------------------------------------||---------------||---------------|
B|-------------------------------------||---------------||---------------|
G|-------------------------------------||---------------||---------------|
D|--------------------2----------------||---------------||---------------|
A|--------1---------2---2---------1----||--2-3-2--------||--2-3-2-----7--|
D|--0-2-3---3-2-0-3-------3-0-2-3---3-2||--------5-3-2--||--------5-7----|


riff 1
Gtr 1 & 2
e|------------------------------|
B|------------------------------|
G|------------------------------|
D|------------------------------|x3
A|--7--7-7-10-10--7--7-6-7-9-9--|
D|------------------------------|

Gtr 1 & 2
e|-----------------------------------|
B|-----------------------------------|
G|-----------------------------------|
D|-----------------------------------|
A|--7--7-7-10-10--7--7-6-7-9-9-10-9--|
D|-----------------------------------|


| Intro riff 	x2


Riff 2
Gtr 1 & 2
e|--------------------------------------------|
B|--------------------------------------------|
G|--------------------------------------------|
D|--9-9----7----------------------------------|
A|--7-7-10---9--6-6-7-7--7-7-7-7-5-5-5-5-2-2--|
D|--------------7-7-7-7--5-5-5-5-3-3-3-3-0-0--|

e|--------------------------------------------|
B|--------------------------------------------|
G|--------------------------------------------|
D|--9-9----7----------------------------------|
A|--7-7-10---9--6-6-7-7--7-7-7-7-5-5-5-5-9-9--|
D|--------------7-7-7-7--5-5-5-5-3-3-3-3-7-7--|

Play Riff 2 four times, then:

Riff 3
e|-------------------------------------------|
B|-------------------------------------------|
G|-------------------------------------------|
D|------------------2-0p2h0------------------|x6
A|--2-------------0---------3-2-0-------2----|
D|--0-0-0-1-0-2-3-----------------3-2-3---3--|


| Riff 2

Riff 4
e|--------|
B|--------|
G|--------|
D|--------|x8
A|--2--2--|
D|--0--0--|


Riff 5
e|---------------------|
B|---------------------|
G|---------------------|
D|--------------/10-9--|x8
A|--7-7--10-9-6--------|
D|---------------------|


|-----|
|-----|
|-----|
|-----|
|--7--|
|-----|

...
Suggest correction
comments
print report bad tab
guest
You may want to rate the tab now too:
select rating
Wanna post a correction for this tab? Suggest correction