Oops, an error
Loading. Please wait.

The Virginborn Tab

1,466 views 1 this week
no commentswrite comment
1 2 3 4 5
please rate
add to favorites
launch autoscroll
font size
0
reset
how to read this tab
guitar tuner
Autoscroll
slow
fast
+/-
esc
set tempo
stop
Help us to improve Ultimate-Guitar.com Take our survey!
×
                 ___________________________________
                |  _______________________________  |
                | |  _   _  _  _   _  _  _ ___    | |
                | | / \ / \| \/ \ / \| \/ \ | | | | |
                | | |   | || ||   | || || | | |_| | |
                | | | __| ||_/| __| ||_/| | | | | | |
                | | \_/|\_/| \\_/|\_/| \\_/ | | | | |
                | |  T H E   V I R G I N B O R N  | |
                | |             FROM              | |
                | |   DESTROYER OR ABOUT HOW TO   | |
                | | PHILOSOPHIZE WITH THE HAMMER  | |
                | |              BY               | |
                | |         BAUGHB MATCUK         | |
                | |      (TABS@COMPHELP.NET)      | |
                | |_______________________________| |
                |___________________________________|
                 for a one Cameron, your welcome =)

Standard Tuning

Start with an Em chord (all strings open, 2nd fret on A and D)

Riff 1 - x8
|---------------------------------------------|
|---------------------------------------------|
|---------------------------------------------|
|---------------------------------------------|
|-2---2---2-2---2---2h3-3---3---3-3---3---3p2-|
|-0---0---0-0---0---0h1-1---1---1-1---1---1p0-|

Riff 2 - x4
|-------------------------------------------------------|
|-------------------------------------------------------|
|----------------7-------7------------------4-----------|
|----------7---7---7---7---7-5---5-55-4---4---4---------|
|-2---2-22-5-5-------5-------3---3-33-2-2-------2-------|
|-0---0-00----------------------------------------3--2--|
        ..                         ..
  ^-----------3x-----------^

Riff 3 - x4
|----------------------------------------|
|----------------------------------------|
|------------------------------------0---|
|------------------------------------5---|
|-2---2---2----2-2--2----2-2--2----2-6---|
|-0---0---0-2^-0-0--0-2^-0-0--0-2^-0-----|
             ^- Bend half step

Riff 4 - x4
|----------------------------------------|
|----------------------------------------|
|----------------------------------------|
|----------------------------------------|
|-2---2---2----2-2--2----2-2--2----2-5-4-|
|-0---0---0-2^-0-0--0-2^-0-0--0-2^-0-3-2-|

Riff 5 - x4
|---------------------------------------|
|---------------------------------------|
|-------------------------------7---7-6-|
|-------------------------------5---5-4-|
|-2---2---2----2-2--2----2-2--2---------|
|-0---0---0-2^-0-0--0-2^-0-0--0---------|

Play Riff 4 - x4
End on E power chord (open on low E, 2nd fret on A)

Riff 6 - x12 (Gtr 1 only on last 8 repeats)
|-----------------------------------------------------|
|-----------------------------------------------------|
|-----------------------------------------------------|
|---------------------10-10--9-7-9--7-5-7--5-4-5--2-4-|
|-2---2---2----2-2--2---------------------------------|
|-0---0---0-2^-0-0--0---------------------------------|

Riff 6, Gtr 2 - x8 (This is only played during the last 8 repeats)
|-----------------------------------------------------|
|-----------------------------------------------------|
|---------------------10-10--7-9----5-7----4-5----2-4-|
|--------------------------------7------5------3------|
|-2---------------------------------------------------|
|-----------------------------------------------------|

End on E power chord.

Sounds right to me, but I'm open to suggestions. Particularly that
last riff, I think it's right, but at the same time it sounds wrong.
Whatever =)
Suggest correction
Give kudos to tab author, rate the tab!
1 2 3 4 5
comments
print report bad tab
guest
You may want to rate the tab now too:
select rating
Wanna post a correction for this tab? Suggest correction