Oops, an error
Loading. Please wait.

Disincarnated Tab

version 1
version 1

Whole song

Interactive

1,602 views 3 this week
no commentswrite comment
1 2 3 4 5
please rate
add to favorites
launch autoscroll
font size
0
reset
how to read this tab
guitar tuner
Autoscroll
slow
fast
+/-
esc
set tempo
stop
Help us to improve Ultimate-Guitar.com Take our survey!
×
DISINCARNATED - Gorguts - Considered Dead

Rhythm Guitar Transcribed on Bass
Tuning (Low - High): C F Bb E 

Note Before Starting: The left channel guitar appears to be tuned slightly higher than right one - like Suffocation's Despise The Sun MCD, so maybe this is where Suffo got the idea from!!

Intro Drum Roll

A						   Play 4 Times
|-------------------------------------------------|
|-------------------------------------------------|
|---------------------------------3-------3---3---|
|-5-5-5-5-5-5-5-5-2-2-2-2-2-2-2-2-1-1-1-1-1-1-1-1-|
  pm..............................  . . .   .   .


B1									 Play 4 Times
|-----------------------------------------------------------------|
|-----------------------------------------------------------------|
|-----------------5---4-----------------------3-------4-------3---|
|-1---2---5---4-----------4---4---5---1---2-------1-------1-------|
  pm..............        pm..................    pm..    pm..


B1' (in harmony with Riff B the last 2 times)
|-----------------------------------------------------------------|
|-----------------7---6-----------------------5-------6-------5---|
|-3---4---7---6-----------6---6---7---3---4-------3-------3-------|
|-----------------------------------------------------------------|
  pm..............        pm..................    pm..    pm..


Repeat A x 4


C1 - Left Channel
|----------------------------------------------------------------|
|-------------------------9------10------6-------7---------------|
|-----------------6---5------5-------5-------5-------------------|
|-3---4---7---6--------------------------------------------------|
|----------------------------------------------------------------|
|--------------------------------------------------------1---1---|
| pml.....................   pml     pml     pml         pm......|
|   - Right Channel	                         		     |
|----------------------------------------------------------------|
|-----------------3--------------2-------------------------------|
|-4---------------1--------------0-------3-------4---------------|
|-2--------------------------------------1-------2-------1---1---|
                                                          pm......


C2 - Left Channel
|----------------------------------------------------------------|
|-------------------------8--------------------------------------|
|-----------------6---5------------------------------------------|
|-3---4---7---6------------------2-------------------------------|
|----------------------------------------3-------4-------3-------|
|----------------------------------------------------------------|
| pml.....................         					     |
|  - Right Channel							     |
|----------------------------------------------------------------|
|-----------------3--------------2-------------------------------|
|-4---------------1--------------0-------3-------4-------3-------|
|-2--------------------------------------1-------2-------1-------|


C3 - Left Channel
|----------------------------------------------------------------|
|-------------------------9------10------6-------7---------------|
|-----------------6---5------5-------5-------5-------------------|
|-3---4---7---6--------------------------------------------------|
|----------------------------------------------------------------|
|----------------------------------------------------1---1---1---|
| pml.....................   pml     pml     pml     pm..........|
|  - Right Channel					  		     |
|----------------------------------------------------------------|
|-----------------3--------------2-------------------------------|
|-4---------------1--------------0-------3-------4---------------|
|-2--------------------------------------1-------2---1---1---1---|
                                                      pm..........


C4 - Left Channel
|----------------------------------------------------------------|
|-------------------------9--------------------------------------|
|-----------------6---5------------------------------------------|
|-3---4---7---6--------------------------------------------------|
|--------------------------------0-------------------------------|
|----------------------------------------1-------2-------1-------|
| pml.....................          	 	   	 	     |
|  - Right Channel							     |
|----------------------------------------------------------------|
|-----------------3--------------2-------------------------------|
|-4---------------1--------------0-------3-------4-------3-------|
|-2--------------------------------------1-------2-------1-------|


Repeat B1 x 3


B2 (Fourth Time)
|-----------------------------------------------------------------|
|---------------------------------2-------------------------------|
|-----------------5---4-----------0-------3-------4-------3-------|
|-1---2---5---4-----------4---4-----------1-------2-------1-------|
  pm..............        pm......


Repeat B1 x 2, B1 (w/B1' Harmony), B2 (w/B2' harmony)



B2' (in harmony with Riff B2)
|-----------------------------------------------------------------|
|-----------------7---6-----------2-------------------------------|
|-3---4---7---6-----------6---6---0-------3-------4-------3-------|
|-----------------------------------------1-------2-------1-------|
  pm..............        pm......


Repeat A x 4  (last time, omit the three last notes)


D1 - Left Channel
|-------------------------------------------------------------------------|
|-------------11-11-11-11-------------11-11-11-11-------------10-10-10-10-|
|-9--9--9--9--------------12-12-12-12-------------11-11-11-11-------------|
|-------------------------------------------------------------------------|
| pm......................................................................|
|  - Right Channel									  |
|-------------------------------------------------------------------------|
|-------------4--4--4--4--4--4--4--4--4--4--4--4--------------3--3--3--3--|
|-------------------------------------------------4--4--4--4--------------|
|-2--2--2--2--------------------------------------------------------------|
  pm......................................................................


D2 - Left Channel
|-----------------------|
|-------------13---10---|
|-12-12-12-12-11---8----|
|-----------------------|
|  pm..........		|
|  - Right Channel	|
|-----------------------|
|-------------6----3----|
|-5--5--5--5--4----1----|
|-----------------------|
  pm..........


Repeat D1 & D2


E1 - Left Channel
|------------------------------------------------------------------------|
|-------------9--9--9--9-------------9--9--9--9--------------8--8--8--8--|
|-7--7--7--7-------------10-10-10-10-------------9--9--9--9--------------|
|------------------------------------------------------------------------|
| pm.....................................................................|
| - Right Channel										 |
|------------------------------------------------------------------------|
|-------------2--2--2--2--2--2--2--2--2--2--2--2-------------1--1--1--1--|
|-0--0--0--0--------------------------------------2--2--2--2-------------|
|------------------------------------------------------------------------|
  pm.....................................................................

E2 - Left Channel
|-----------------------|
|-------------11---8----|
|-10-10-10-10-9----6----|
|-----------------------|
| pm..........		|
|  - Right Channel	|
|-----------------------|
|-------------4---------|
|-3--3--3--3--2----6----|
|------------------4----|
| pm..........


Repeat (E1 & E2) x 2
Repeat (D1 & D2) x 2
Repeat (E1 & E2) x 2


Fill
|-----------------|
|-----------------|
|-3---3---3---3---|
|-1---1---1---1---|
  pmh.............


F		        						   Play 4 Times
|-------------------------------------------------------------------|
|-------------------------------------------------------------------|
|-------------------------------------------------------------------|
|-2-2-2-3p2-2-2-2-2-2-2-2-2-2-2-2-2-2-2-3h2-2-2-2-2-1-1-1-1-4-4-4-4-|
  pm...............................................................

Fill - Left Channel
|-------------------------------------------------------------------|
|-------------------------------------------------------------------|
|-------------------------------------------------------------------|
|-2-2-2-3p2-----------------------2-2-2-3h2-2-2-2-2-1-1-1-1-4-4-4-4-|
| pm...............................................................
|    - Right Channel 
|-------------------------------------------------------------------|
|-------------------------------------------------------------------|
|-------------------------------------------------------------------|
|-2-2-2-3p2-2-2-2-2-2-2-2-2-2-2-2-2-2-2-3h2-2-2-2-2-1-1-1-1-4-4-4-4-|
  pm...............................................................


Repeat F x 2

F'
|-----------------------------------------------------------------|--------|
|-----------------------------------------------------------------|--------|
|---------------------------------------------------------3-------|-2------|
|-2-2-3p2-2-2-2-2-2-2-2-2-2-2-2-2-2-2-3h2-2-2-2-2-1-1-1-1-1-------|-0------|
  pm......................................................		  pm


Repeat (D1 & D2) x 2
Repeat (E1 & E2) x 2
Repeat (D1 & D2) x 2 (w/Guitar Solo)
Repeat (E1 & E2) x 2 (w/Guitar Solo continued)


Fill - Left Channel				   (Let notes ring)
|---------------------------------|---------------------------------|
|-2-------------------------------|-----2---------------------------|
|-2-------------------------------|-----2---------------------------|
|-0-------------------------------|-3---0-----------------------3---|
|    - Right Channel								  |
|---------------------------------|---------------------------------|
|-2-------------------------------|---------------------------------|
|-2-------------------------------|-----2---------------------------|
|-0-------------------------------|-3---------------------------3---|


G1 - Left Chan.    (1 - 3)                       (4)
|---------------------------------|---------------------------------|
|---------------------------------|---------------------------------|
|-2---------------1---------------|-2---------------1---------------|
|---------3-----------2-------3---|---------3-----------2-------3---|
| - Right Chan.							     p.h.	  |
|---------------------------------|---------------------------------|
|---------------------------------|---------------------------------|
|-2---5---1~----------5---4-------|-2---5---1~----------5---4~------|
|---------------------------------|---------------------------------|


Repeat C1, C2, C3 & C4  (Slower)


G2 - Left Chan.    (1 - 2)                      (3 - 4)
|---------------------------------|---------------------------------|
|---------------------------------|---------------------------------|
|-2---------------1---------------|-2---------------1---------------|
|---------3-----------2-------3---|---------3-----------2-------3---|
| - Right Chan.									  |
|---------------------------------|---------------------------------|
|---------------------------------|-----3---------------3---2-------|
|---------------------------------|-4-------3~----------------------|
|----------------------------(5*)-|---------------------------------|
|-2---5---1~----------5---4-------|---------------------------------|
|---------------------------------|---------------------------------|
         (Note: * Second Time only)


Repeat B1 x 3, B2, B1 x 2, B1 (w/B1'), B2 (w/B2')
Repeat A x 4


The End.


Erik
----------------------
erik_heino@hotmail.com
Suggest correction
Give kudos to tab author, rate the tab!
1 2 3 4 5
comments
print report bad tab
guest
You may want to rate the tab now too:
select rating
Wanna post a correction for this tab? Suggest correction