Oops, an error
Loading. Please wait.

Elusive Treasures Tab

version 1
version 1

Whole song

Interactive

712 views 1 this week
no commentswrite comment
1 2 3 4 5
please rate
add to favorites
launch autoscroll
font size
0
reset
how to read this tab
guitar tuner
Tab Pro tools
  • play this tab
  • loop segment
  • change instrument
  • show fretboard
  • metronome
×
Best way to learn
"Elusive Treasures"
Autoscroll
slow
fast
+/-
esc
set tempo
stop
Contributor
.  - palm mute           /  - slide up to
\  - slide down to       ~  - vibrato
h  - hammer on           b  - Bend
p  - pull off            Suffixes for bend
t  - tap                 f  - full bend    h - half bend
ph - pinched harmonic    q  - quarter bend t - tap bend
nh – natural harmonic
~  - vibrato bend        ^  - Hold bend    r release bend

r  - let ring this note


Tuning: C F A# D# G C


Guitar 1 = left side
Guitar 2 = right side

PART I (0:00)
|--3-times--|-------CLEAN----------------|--3-times--|
|-----------|----------------------------|-----------|
|-----0--0--|-0--------0--------0--------|-----0--0--|
|---4-5--4--|----6--------6--------6-----|---4-5--4--|
|-----------|----------------------------|-----------|
|-3---------|-------4--------4--------4--|-3---------|
  . .                                      . .

PART II (0:08)
|-------------------------------------------------------------------------
|-------------------------------------------------------------------------
|-------------0-----------------------------------------------------------
|-------------0-h4--4/5----4/5--0-----------------------------------------
|-2--2-----ph------------6---------5----5--5------------------------2--2--
|-0--0--3--6-----------------------9~~--9--9--4--3--2~---2--2--2/5--0--0--

 ----------------------------------------------
 ----------------------------------------------
 -------------0--------------------------------
 -------------0-h4--4/5---4/5---0--------------
 -2--2-----ph-----------6----------5----5------
 -0--0--3--6-----------------------9~~--9--9-\-

 ----------------------------------------------------------||
 ----------------------------------------------------------||
 -------0-----------------------0--------------------------||
 ----6-----6--9--9--9-\------6-----6--9--9--9-\-6-----5-ph-||
 -------------------------------------------------------3--||
 -4-----------7--7--7-\---4-----------7--7--7-\----3-------||



last time before jumping into PART 3
 ----------------------------------------------||
 ----------------------------------------------||
 -------0-----------------------0--------------||
 ----6-----6--9--9--9-\------6-----6--9--9--9\-||
 ----------------------------------------------||
 -4-----------7--7--7-\---4-----------7--7--7\-||

PART 3 (1:13)
|-------4-times-(clean)--------|
|------------------------------|
|---0--------0--------0--------|
|------6--------6--------5-----|
|---------7--------7-----------|
|------------------------------|

|----third-time-(fading in)----|
|------------------------------|
|------------------------------|
|------------------12----------|
|------------------10----------|
|------------------------------|

|--4-times--||
|-----------||
|-----0--0--||
|---4-5--4--||
|-----------||
|-3---------||
  . .

|-------4-times-(clean)--------|
|------------------------------|
|---0--------0--------0--------|
|------6--------6--------5-----|
|---------7--------7-----------|
|------------------------------|

|----third-time-(fading in)----|
|------------------------------|
|------------------------------|
|------------------12----------|
|------------------10----------|
|------------------------------|

|--4-times--||
|-----------||
|-----0--0--||
|---4-5--4--||
|-----------||
|-3---------||
  . .

|-------BASS--------|----GUITARS-----||
|-------------------|-before-jumping-||
|-0--0--0--0--0--0--|-into-part-IV---||
|-6--6--6--6--6--6--|----------------||
|-------------------|----------------||
|-------------------|-----------7\2--||




PART IV (1:55)
|---------------------------------------------||
|-------0-------------------------------------||
|-0--1--1-------------------------------------||
|-0--0--0--4r---------------------------------||
|---------------------------------------------||
|--------------1----1--1--1--2--3--4—-6--7\2--||

last time before jumping into PART II again
|----------------------------------------||
|-------0--------------------------------||
|-0--1--1--------------------------------||
|-0--0--0--4r----------------------------||
|----------------------------------------||
|--------------1----1--1--1--2--3--4—-6\-||

again PART II
again PART III
again PART IV

last time before jumping into PART V
|--------------------------------------------------------||
|-------0------------------------------------------------||
|-0--1--1------------------------------------------------||
|-0--0--0--4r--------------------------------------------||
|--------------------------------------------------2-----||
|--------------1----1--1--1--2--3--4—-6—-7---\---2—4-----||


PART V (4:35) guitar 1    only first time
|---------------------------1----------------------------------------------
|-------------------------------------------------------0------0------0----
|--------0------0------0-------------3------------------4-\-3--4-/-7--3----
|--------6-\-5--6-/-9--5----3-----------6----------------------------------
|-1-/-2------------------------------1-----------1-/-2---------------------
|-0-------------------------1--------3--4--------0-------------------------


 ---------------------------0------0------0------------------------------||
 -----0---------------------5-\-4--5-/-8--4------------------------------||
 -----4----7------7\-----------------------------------------------nh-nh-||
 ---1-1----3----4--------------------------------------------------3--3--||
 -3--------5--6------1-/-2-----------------------------------------------||
 --------------------0---------------------------------------------0--0--||
                                                                   .  .

PART V (4:35) guitar 2    only first time
|-----------------------------1--------------------------------------------
|-------------------------------------------------------0------0------0----
|--------0------0------0--------1----3------4\----------4-\-3--4-/-7--3----
|--------6-\-5--6-/-9--5------3---------6-6--------------------------------
|-1-/-2------------------------------1-----------1-/-2---------------------
|-0-------------------------1--------3--4--------0-------------------------

                                                 3 times
 ---------------------------0------0------0--|-------------|-------------||
 -----0---------------------5-\-4--5-/-8--4--|----4-----0--|----4--------||
 -----4----7------7\-------------------------|-7-----7-----|-7-----nh-nh-||
 ---1-1----3----4----------------------------|-------------|-------3--3--||
 -3--------5--6------1-/-2-------------------|-------------|-------------||
 --------------------0-----------------------|-------------|-------0--0--||
                                                                   .  .

PART V continue guitar 1    second and third time
|---------------------------1----------------------------------------------
|-------------------------------------------------------0------0------0----
|--------0------0------0-------------3------------------4-\-3--4-/-7--3----
|--------6-\-5--6-/-9--5----3-----------6----------------------------------
|-1-/-2------------------------------1-----------1-/-2---------------------
|-0-------------------------1--------3--4--------0-------------------------

                                                 3 times
 ---------------------------0------0------0--|-------------|-------------||
 -----0---------------------5-\-4--5-/-8--4--|----4-----0--|----4--------||
 -----4----7------7\-------------------------|-7-----7-----|-7-----------||
 ---1-1----3----4----------------------------|-------------|-------------||
 -3--------5--6------1-/-2-------------------|-------------|-------2--2--||
 --------------------0-----------------------|-------------|-------0--0--||
                                                                   .  .

PART V continue guitar 2    second and third time
|-----------------------------1--------------------------------------------
|-------------------------------------------------------0------0------0----
|--------0------0------0--------1----3------4\----------4-\-3--4-/-7--3----
|--------6-\-5--6-/-9--5------3---------6-6--------------------------------
|-1-/-2------------------------------1-----------1-/-2---------------------
|-0-------------------------1--------3--4--------0-------------------------

                                                 3 times
 ---------------------------0------0------0--|-------------|-------------||
 -----0---------------------5-\-4--5-/-8--4--|----4-----0--|----4--------||
 -----4----7------7\-------------------------|-7-----7-----|-7-----------||
 ---1-1----3----4----------------------------|-------------|-------------||
 -3--------5--6------1-/-2-------------------|-------------|-------2--2--||
 --------------------0-----------------------|-------------|-------0--0--||
                                                                   .  .


PART V continue guitar 1    last time
|---------------------------1----------------------------------------------
|-------------------------------------------------------0------0------0----
|--------0------0------0-------------3------------------4-\-3--4-/-7--3----
|--------6-\-5--6-/-9--5----3-----------6----------------------------------
|-1-/-2------------------------------1-----------1-/-2---------------------
|-0-------------------------1--------3--4--------0-------------------------

                                                 3 times
 ---------------------------0------0------0--|-------------|
 -----0---------------------5-\-4--5-/-8--4--|----4-----0--|
 -----4----7------7\-------------------------|-7-----7-----|
 ---1-1----3----4----------------------------|-------------|
 -3--------5--6------1-/-2-------------------|-------------|
 --------------------0-----------------------|-------------|


 -------------------------------------------------||
 -------------------------------------------------||
 -------------------------------------------------||
 -------------------------------------------------||
 -2--2--1-----------------------------------------||
 -0--0--0-----------------------------------------||
  .  .



PART V continue guitar 2    last time
|-----------------------------1--------------------------------------------
|-------------------------------------------------------0------0------0----
|--------0------0------0--------1----3------4\----------4-\-3--4-/-7--3----
|--------6-\-5--6-/-9--5------3---------6-6--------------------------------
|-1-/-2------------------------------1-----------1-/-2---------------------
|-0-------------------------1--------3--4--------0-------------------------


                                                 4 times
 ---------------------------0------0------0--|-------------|
 -----0---------------------5-\-4--5-/-8--4--|----4-----0--|
 -----4----7------7\-------------------------|-7-----7-----|
 ---1-1----3----4----------------------------|-------------|
 -3--------5--6------1-/-2-------------------|-------------|
 --------------------0-----------------------|-------------|


 -------------------------------------------------||
 ----4-----0-----4-----0-----4-----0-----4-----0--||
 -7-----7-----7-----7-----7-----7-----7-----7-----||
 -------------------------------------------------||
 -------------------------------------------------||
 -------------------------------------------------||

END

comments
We did not receive enough feedback on this tab! Please rate:
print report bad tab
1 2 3 4 5
I want to post or [tab]
guest
You may want to rate the tab now too:
select rating
Please do not post tabs as comments. Select "correction" instead!