Oops, an error
Loading. Please wait.

Inverted Tab

version 1
version 1

Whole song

Interactive

by Gorguts
2,189 views 6 this week
1 commentread comment
1 2 3 4 5
1 last vote to show rating
add to favorites
launch autoscroll
font size
0
reset
how to read this tab
guitar tuner
Autoscroll
slow
fast
+/-
esc
set tempo
stop
Tuning: C F A# D# G C [Dropped 3 Full Steps]

[Intro]
e|----------------------------|---------------------------|
B|---------x---------------x--|--------x---------------x--|
G|*--------x--------x--21t-x--|--------x--------x--21t-x--|
D|*--------x--------x--21t-x--|--------x--------x--21t-x--|
A|---xt-0--x--xt-xt--------x--|--xt-0--x--xt-xt--------x--|
E|---xt-0-----xt-xt-----------|--xt-0-----xt-xt-----------|

                                                      (3x)
e|---------------------------|-------------------------|
B|--------x---------------x--|-------------------------|
G|--------x--------x--21t-x--|------------------------*|
D|--------x--------x--21t-x--|------------------------*|
A|--xt-0--x--xt-xt--------x--|--3--2----2-----2----2---|
E|--xt-0-----xt-xt-----------|--2--1----1--0--1----1---|

[Chorus Riff]
e|---0---------------------|----------------------0--|--0---------------------|
B|---0---------------------|-------------------------|--0---------------------|
G|*--3---------------------|-------------9-----8-----|--3---------------------|
D|*------------------------|-------------------------|------------------------|
A|--------2--3--2-------0--|--2-------7--------------|-------2--3--2-------0--|
E|--------1--2--1----4/----|--1----6--------6--------|-------1--2--1----4/----|

e|-------------------------|--0---------------------|----------------------0--|
B|-------------------------|--0---------------------|-------------------------|
G|-------------8--8--8/7---|--3---------------------|-------------9-----8-----|
D|-------------------------|------------------------|-------------------------|
A|----------6-----6--8/5---|-------2--3--2-------0--|--2-------7--------------|
E|--1----5--------5--5/4---|-------1--2--1----4/----|--1----6--------6--------|

e|--0---------------------|--------------------------|
B|--0---------------------|--------------------------|
G|--3---------------------|-------------6--6--6/5---*|
D|------------------------|-------------------------*|
A|-------2--3--2-------0--|----------4-----4--4/3----|
E|-------1--2--1----4/----|--1----3--------3--3/2----|

[Verse Riff]
e|-----------------------|
B|-----------------------|
G|*--8---------8---------|
D|*----------------------|
A|---6---------6---------|
E|---5r-----0--5r-----0--|

e|------------------------|----------------------|------------------0--------|
B|------------------------|----------------------|------------------0--------|
G|--8---------------------|--8---------8---------|--8---------------3-------*|
D|------------3/-4--3/-4--|----------------------|--------------------------*|
A|--6---------------------|--6---------6---------|--6------------0-----------|
E|--5r-----0--1/-2--1/-2--|--5r-----0--5r-----0--|--5r-----0--4--------------|

e|-----------------------|------------------------|---------------------------|
B|-----------------------|------------------------|---------------------------|
G|*--8---------8---------|--8---------------------|--8---------8--------------|
D|*----------------------|------------3/-4--3/-4--|---------------------------|
A|---6---------6---------|--6---------------------|--6---------6--------------|
E|---5r-----0--5r-----0--|--5r-----0--1/-2--1/-2--|--5r-----0--5r-----0-------|

 |----------------1st Time|----------------------|------------------2nd Time|
e|------------------0-----|----------------------|--------------------------|
B|------------------0-----|----------------------|--------------------------|
G|--8---------------3----*|--8-------------------|--------------------------|
D|-----------------------*|----------------------|--------6-------6--6/-5---|
A|--6------------0--------|--6---------2---------|--3--2--------------------|
E|--5r-----0--4-----------|--5r-----0--1------0--|--3--2--4----4-----4/-3---|

[Intro As Bridge]
e|----------------------------|---------------------------|
B|---------x---------------x--|--------x---------------x--|
G|*--------x--------x--21t-x--|--------x--------x--21t-x--|
D|*--------x--------x--21t-x--|--------x--------x--21t-x--|
A|---xt-0--x--xt-xt--------x--|--xt-0--x--xt-xt--------x--|
E|---xt-0-----xt-xt-----------|--xt-0-----xt-xt-----------|

                                                      (3x)
e|---------------------------|-------------------------|
B|--------x---------------x--|-------------------------|
G|--------x--------x--21t-x--|------------------------*|
D|--------x--------x--21t-x--|------------------------*|
A|--xt-0--x--xt-xt--------x--|--3--2----2-----2----2---|
E|--xt-0-----xt-xt-----------|--2--1----1--0--1----1---|

[Verse Riff]
e|-----------------------|
B|-----------------------|
G|*--8---------8---------|
D|*----------------------|
A|---6---------6---------|
E|---5r-----0--5r-----0--|

e|------------------------|----------------------|------------------0--------|
B|------------------------|----------------------|------------------0--------|
G|--8---------------------|--8---------8---------|--8---------------3-------*|
D|------------3/-4--3/-4--|----------------------|--------------------------*|
A|--6---------------------|--6---------6---------|--6------------0-----------|
E|--5r-----0--1/-2--1/-2--|--5r-----0--5r-----0--|--5r-----0--4--------------|

e|-----------------------|------------------------|---------------------------|
B|-----------------------|------------------------|---------------------------|
G|*--8---------8---------|--8---------------------|--8---------8--------------|
D|*----------------------|------------3/-4--3/-4--|---------------------------|
A|---6---------6---------|--6---------------------|--6---------6--------------|
E|---5r-----0--5r-----0--|--5r-----0--1/-2--1/-2--|--5r-----0--5r-----0-------|

 |----------------1st Time|----------------------|------------------2nd Time|
e|------------------0-----|----------------------|--------------------------|
B|------------------0-----|----------------------|--------------------------|
G|--8---------------3----*|--8-------------------|--------------------------|
D|-----------------------*|----------------------|--------6-------6--6/-5---|
A|--6------------0--------|--6---------2---------|--3--2--------------------|
E|--5r-----0--4-----------|--5r-----0--1------0--|--3--2--4----4-----4/-3---|

[Chorus Riff]
e|---0---------------------|----------------------0--|--0---------------------|
B|---0---------------------|-------------------------|--0---------------------|
G|*--3---------------------|-------------9-----8-----|--3---------------------|
D|*------------------------|-------------------------|------------------------|
A|--------2--3--2-------0--|--2-------7--------------|-------2--3--2-------0--|
E|--------1--2--1----4/----|--1----6--------6--------|-------1--2--1----4/----|

e|-------------------------|--0---------------------|----------------------0--|
B|-------------------------|--0---------------------|-------------------------|
G|-------------8--8--8/7---|--3---------------------|-------------9-----8-----|
D|-------------------------|------------------------|-------------------------|
A|----------6-----6--8/5---|-------2--3--2-------0--|--2-------7--------------|
E|--1----5--------5--5/4---|-------1--2--1----4/----|--1----6--------6--------|

e|--0---------------------|--------------------------|
B|--0---------------------|--------------------------|
G|--3---------------------|-------------6--6--6/5---*|
D|------------------------|-------------------------*|
A|-------2--3--2-------0--|----------4-----4--4/3----|
E|-------1--2--1----4/----|--1----3--------3--3/2----|

[Interlude Riff 1]
e|-----------------|
B|-----------0-----|
G|-----------4/-5--|
D|-----------------|
A|---2----2--------|
E|---1----1--------|

e|------------------|------------------|-----------------------|
B|------------0-----|------------0-----|----1--------0---------|
G|------------4/-5--|------------4/-5--|--4---4----------------|
D|------------------|------------------|----------------10--9--|
A|--2----2----------|--2----2----------|-----------0-----------|
E|--1----1----------|--1----1----------|---------4------8---7--|

e|----------0--0--|----------0--0--|----------0--0--|----------------0---|
B|----------0--0--|----------0--0--|----------0--0--|----------------0---|
G|----------3--3--|----------3--3--|----------3--3--|-------------0--0---|
D|----------------|----------------|----------------|----------------10--|
A|--2----2--------|--2----2--------|--2----2--------|----6------0----0---|
E|--1----1--------|--1----1--------|--1----1--------|--3---3--4------8---|

[Interlude Riff 2] (x2)
e|---------------------|----------------|-----------------|-----------------|
B|---------------------|----------0-----|-----------------|-----------------|
G|*-----------------0--|----------------|-----------------|-----------------|
D|*-----------3--------|-------------6--|--6/-5--5/-3--3--|-----------3-----|
A|---------------------|----------------|-----------------|-----------------|
E|---4--0--1-----0-----|--0--1-------4--|--4/-3--3/-1--1--|--4--0--1-----0--|

 |-----------1st Time|----------------2nd Time|
e|-------------------|------------------------|
B|--0----------0-----|--0----------0----------|
G|------------------*|------------------------|
D|------------------*|------------------------|
A|-------------------|------------------------|
E|-----0--1----------|-----0--1---------4--0--|

[Interlude Riff 1]
e|-----------------|
B|-----------0-----|
G|-----------4/-5--|
D|-----------------|
A|---2----2--------|
E|---1----1--------|

e|------------------|------------------|-----------------------|
B|------------0-----|------------0-----|----1--------0---------|
G|------------4/-5--|------------4/-5--|--4---4----------------|
D|------------------|------------------|----------------10--9--|
A|--2----2----------|--2----2----------|-----------0-----------|
E|--1----1----------|--1----1----------|---------4------8---7--|

e|----------0--0--|------------0--0--|----------0--0--|----------------0---|
B|----------0--0--|------------0--0--|----------0--0--|----------------0---|
G|----------3--3--|------------3--3--|----------3--3--|-------------0--0---|
D|----------------|------------------|----------------|----------------10--|
A|--2----2--------|--2----2----------|--2----2--------|----6------0----0---|
E|--1----1--------|--1----1----------|--1----1--------|--3---3--4------8---|

[Chorus Riff Variation]
e|-------------------------|-------------------------|------------------------|
B|-------------------------|-------------------------|------------------------|
G|*------------------------|-------------------------|------------------------|
D|*------------------------|--5--5-------8/-7--7/-8--|------------------------|
A|---3--2----2-----2----2--|-------------------------|--3--2----2-----2----2--|
E|---2--1----1--0--1----1--|--4--4----0--6/-5--5/-6--|--2--1----1--0--1----1--|

                           (3x)
e|--------------------------|
B|--------------0-----------|
G|--------------3----------*|
D|-------------------5/-6--*|
A|--1h-0--0h-1--------------|
E|-------------------3/-4---|

[Verse Riff]
e|-----------------------|
B|-----------------------|
G|*--8---------8---------|
D|*----------------------|
A|---6---------6---------|
E|---5r-----0--5r-----0--|

e|------------------------|----------------------|------------------0--------|
B|------------------------|----------------------|------------------0--------|
G|--8---------------------|--8---------8---------|--8---------------3-------*|
D|------------3/-4--3/-4--|----------------------|--------------------------*|
A|--6---------------------|--6---------6---------|--6------------0-----------|
E|--5r-----0--1/-2--1/-2--|--5r-----0--5r-----0--|--5r-----0--4--------------|

e|-----------------------|------------------------|---------------------------|
B|-----------------------|------------------------|---------------------------|
G|*--8---------8---------|--8---------------------|--8---------8--------------|
D|*----------------------|------------3/-4--3/-4--|---------------------------|
A|---6---------6---------|--6---------------------|--6---------6--------------|
E|---5r-----0--5r-----0--|--5r-----0--1/-2--1/-2--|--5r-----0--5r-----0-------|

 |----------------1st Time|----------------------|------------------2nd Time|
e|------------------0-----|----------------------|--------------------------|
B|------------------0-----|----------------------|--------------------------|
G|--8---------------3----*|--8-------------------|--------------------------|
D|-----------------------*|----------------------|--------6-------6--6/-5---|
A|--6------------0--------|--6---------2---------|--3--2--------------------|
E|--5r-----0--4-----------|--5r-----0--1------0--|--3--2--4----4-----4/-3---|

[Intro As Bridge]
e|----------------------------|---------------------------|
B|---------x---------------x--|--------x---------------x--|
G|*--------x--------x--21t-x--|--------x--------x--21t-x--|
D|*--------x--------x--21t-x--|--------x--------x--21t-x--|
A|---xt-0--x--xt-xt--------x--|--xt-0--x--xt-xt--------x--|
E|---xt-0-----xt-xt-----------|--xt-0-----xt-xt-----------|

                                                      (3x)
e|---------------------------|-------------------------|
B|--------x---------------x--|-------------------------|
G|--------x--------x--21t-x--|------------------------*|
D|--------x--------x--21t-x--|------------------------*|
A|--xt-0--x--xt-xt--------x--|--3--2----2-----2----2---|
E|--xt-0-----xt-xt-----------|--2--1----1--0--1----1---|

[Outro Riff]
e|------------0--0--|----------------|--------------|
B|------------0--0--|----------------|--------------|
G|------------3--3--|----------------|--------------|
D|------------------|----------------|--------------|
A|--2----2----------|--2----2--------|(2)-----------|
E|--1----1----------|--1----1--------|(1)-----------|



************************************

| x    Dead note
| t    Tapping
| *    Natural harmonic
| /    Slide up
| r    Release
| h    Hammer-on
| (n)  Ghost note

************************************
Suggest correction
Give kudos to tab author, rate the tab!
1 2 3 4 5
comments
print report bad tab
1 comment total.
0 reply
Slaytanic1993 313 Oct 27, 2009 02:23 PM

Everything seems alright, except that C Standard is only 2 steps down

guest
You may want to rate the tab now too:
select rating
Wanna post a correction for this tab? Suggest correction