Oops, an error
Loading. Please wait.

Stiff And Cold Tab

version 1
version 1

Whole song

Interactive

1,771 views 6 this week
no commentswrite comment
1 2 3 4 5
please rate
add to favorites
launch autoscroll
font size
0
reset
how to read this tab
guitar tuner
Autoscroll
slow
fast
+/-
esc
set tempo
stop
Help us to improve Ultimate-Guitar.com Take our survey!
×
STIFF AND COLD - Gorguts - Considered Dead
Version 1.0 - November 2001
Transcribed by Lalith Vipulananthan (singularitymetaltab@hotmail.com)

Rhythm Guitar Transcribed on Bass
Tuning (Low - High): C F Bb E 

Note: The left channel guitar appears to be tuned slightly higher than the right one


Seque in from "..And Then Comes Lividity"

Intro                                                          Guitar 1						
|----------------------------------|----------------------------------|
|----------------------------------|----------------------------------|
|-----11112222666655558888---------|-----11112222666655558888---------|
|-0000--------------------55554444-|-0000--------------------55554444-|
| ................................   ................................ 
|                                                              Guitar 2 
|----------------------------------|----------------------------------|
|-2-----------2-----------2--------|-2---2---2------------------------|
|-2-----------2-----------2--------|-2---2---2------------------------|
|-0-----------0-----------0--------|-0---0---0------------------------|
  .                       .          .   .   .


A1
|----------------------------------|
|----------------------------------|
|-----11112222666655558888---------|
|-0000--------------------55554444-|
  ................................    

A2
|----------------------------------|
|----------------------------------|
|-----111122226666555588883---3----|
|-0000--------------------1---1----|
  .........................   


Repeat A1


A3
|----------------------------------|
|----------------------------------|
|-----111122226666555588883--------|
|-0000--------------------1--------|
  .........................   


B1          Guitar 1                 
|-------------Ah---|
|-----4-------3----|
|-----2------------|
|-00002---2--------|
| ....   
|           Guitar 2   
|-------------Ah---|
|-----4-------3----|
|-----2---4--------|
|-00002------------|
  ....      


Repeat B1 x 2


B2                        
|-----------------------|
|-----4---4-------------|
|-----2---4---3--4--3---|
|-00002---2---1--2--1---|
  ....        .  .  .


Repeat B1 x 3, B2


C1                     
|-----------------|-----------------|
|-2-------3-------|-2-------3-------|
|-2-------1-------|-2-------3-------|
|-0------01-------|-0------01-------|
         .                 .    

Fill 1                        Guitars 
|-----------------|-----------------|
|-2-------3-------|-2-------3-------|
|-2-------1-------|-2-------3-------|
|-0------01-------|-0------01-------|
|           .              ..
|                                Bass
|-----------------|-----------------|
|-----------------|-----------------|
|---------1-------|---------3---3---|
|-0------0--------|-0------0------4-|
                            .


C2                         Play twice
|-----------------|-----------------|
|-2-------3---3---|-2---------------|
|-2-------1-----4-|-2-----------3---|
|-0------01-------|-0---3---1-----4-|
         .                             


Repeat C2 x 2 (with C3 x 2)


C3
|----------------------------------|-----------------------------------------|
|---------5-5-5-5---------3-3------|-----------------------------------------|
|-2-2-2-2---------1-1-1-1-----4-4--|-2-2-2-2-----------------3-3-3-3---------|
|----------------------------------|---------3-3-3-3-1-1-1-1---------4-4-4-4-|
  . . . . . . . . . . . . . . . .    . . . . . . . . . . . . . . . . . . . .             


Fill 2      Guitar 1                 
|-------------Ah---|
|-----4-------3----|
|-----2------------|
|-00002---2--------|
  ....   


Repeat B1 x 2, B2, B1 x 3 


Fill 3                    
|------------------|
|-----4---5---8----|
|-----2---3---6----|
|-00002---3---6----|
  ....         


D1                                                        Play twice			
|------------------------------------------------------------------|
|------------------------------------------------------------------|
|-----------------6666666666666666----------------3333333333333333-|
|-0000000000000000----------------0000000000000000-----------------|
  ................................................................ 


D2                                                        			
|------------------------------------------------------------------|
|-2---------------8---------------2---------------5----------------|
|-2---------------6-------6-------2---------------3-------3--------|
|-0--------------06-----------7\--0--------------03-----------4\---|
                 .                               .


D3                                                       			
|------------------------------------------------------------------|
|-2---------------8---------------2--------------------------------|
|-2---------------6-------6-------2-------5-------3-------3--------|
|-0--------------06-----------7\--0-------3-------1-----------4\---|
                 .                               


C3'                                                                  Play twice
|----------------------------------|------------------------------------------|
|---------55555555--------3333-----|------------------------------------------|
|-22222222--------11111111----4444-|-22222222----------------33333333---------|
|----------------------------------|---------3333333311111111--------44444444-|
  ................................   ........................................  



E                      Play 6 times
|---------------------------------|
|---------------------------------|
|-----------------5-6-5-6-2-3-2-3-|
|-0-1-0-1-2-3-2-3-----------------|
  . . . . . . . . . . . . . . . .


Repeat C1 x 2
Repeat C1 x 2 (under lead)
Repeat E x 4 


A4                      Play 4 times
|----------------------------------|
|----------------------------------|
|-----111122226666555588887---6----|
|-0000--------------------5---4----|
  ........................    


Repeat Fill 2, B1 x 2, B2, B1 x 3


Fill 4                     
|--------------|
|-----4--------|
|-----2--------|
|-00002---2----|
  ....         


Repeat D1 x 2, D2, D3, C3' x 2, E x 4 


The End.


Lalith Vipulananthan
----------------------
singularitymetaltab@hotmail.com
Suggest correction
What's this?
You can suggest a correction to this tab. Community and Mods will review your correction and vote to approve or reject it.
comments
We did not receive enough feedback on this tab! Please rate:
print report bad tab
1 2 3 4 5
guest
You may want to rate the tab now too:
select rating
Please do not post tabs as comments. Select "correction" instead!