Oops, an error
Loading. Please wait.

Sweey Silence Tab

441 views 1 this week
no commentswrite comment
1 2 3 4 5
please rate
add to favorites
launch autoscroll
font size
0
reset
how to read this tab
guitar tuner
Tab Pro tools
  • play this tab
  • loop segment
  • change instrument
  • show fretboard
  • metronome
Autoscroll
slow
fast
+/-
esc
set tempo
stop
Contributor
.  - palm mute           /  - slide up to
\  - slide down to       ~  - vibrato
h  - hammer on           b  - Bend
p  - pull off            Suffixes for bend
t  - tap                 f  - full bend    h - half bend
<> - Pinch Harmonic      q  - quarter bend t - tap bend
*  - see comment         ^  - Hold bend    r release bend
x  - Stuccatto           ~  - vibrato bend
,  - slight palm mute    () - ghost note, sustained note
"  - tremolo note
px- Pull off to muted note
+  - Move picking hand closer to 24th fret
^  - Pinch Harmonic      r - Let note ring

This is just my interpretation. Ive tried, in places, to show
picking patterns which I found to be essential in getting the
sound. Of course, as this is Gorguts (Obscura) dont expect it
to be precise. Just use it as a tool.
You will need to listen to the CD for timing, accentuation, and
harmonics.

I have left all playing explanations at the end of the tab for
easier reading.
Ivan's old tab helped throughout, and the first riff is
entirely his transcription. For anything thats right, thank
Ivan, anything thats wrong, blame me.

--------------------------------------------------------------------------------

0:00                                                              x4
|------------------------[Clean]-----------------------------------|
|------------------------------------------------------------------|
|----9--------9-------8--7--9--6b7--6--6--5--4b5r4-----------------|
|-8--8--8--9--9----9--------------------------------------4-----2--|
|-7-----7--7--7-------6--5--7--4b5--4--4--3--2b3r2-----------------|
|------------------7---------------------------------2--2-----0----|

0:26                                   x8
|---------------------------------------|
|---------------------------------------|
|----t----------------------------------|
|---(5)---------------------------------|
|--------------2-3---3h4---4--4-3--3-2--|
|--1/3br-1-0-1-----2-----2-5--5-4--4-3--|
                           *  * *  *

1:07                                    x4
|----------------------------------------|
|----------------------------------------|
|--------------------------------^---^---|
|-9-9-8-8-7-8-8b--9-9-8-8p7h8---10---9---|
|-8-8-7-7-6-7-7b--8-8-7-7-7-7-7----------|
|----------------------------------8---7-|

1:26
|------------------------[Clean]-----------------------------------|
|------------------------------------------------------------------|
|----9--------9-------8--7--9--6b7--6--6--5--4b5r4-----------------|
|-8--8--8--9--9----9--------------------------------------4-----2--|
|-7-----7--7--7-------6--5--7--4b5--4--4--3--2b3r2-----------------|
|------------------7---------------------------------2--2-----0----|
|                                                                  |
|------------------------------------------------------------------|
|---8--------------------------------------------------------------|
|-8-8-[let ring]---------------------------------------------------|
|-8----------------------------------------------------------------|
|------------------------------------------------------------------|
|------------------------------------------------------------------|

1:33
|------------------------[Clean]-----------------------------------|
|------------------------------------------------------------------|
|----9--------9-------8--7--9--6b7--6--6--5--4b5r4-----------------|
|-8--8--8--9--9----9--------------------------------------4-----2--|
|-7-----7--7--7-------6--5--7--4b5--4--4--3--2b3r2-----------------|
|------------------7---------------------------------2--2-----0----|
|                                                                  |
|------------------------------------------------------------------|
|---7--------------------------------------------------------------|
|-7-7-[let ring]---------------------------------------------------|
|-7----------------------------------------------------------------|
|------------------------------------------------------------------|
|------------------------------------------------------------------|

1:39
|------------------------[Clean]-----------------------------------|
|------------------------------------------------------------------|
|----9--------9-------8--7--9--6b7--6--6--5--4b5r4-----------------|
|-8--8--8--9--9----9--------------------------------------4-----2--|
|-7-----7--7--7-------6--5--7--4b5--4--4--3--2b3r2-----------------|
|------------------7---------------------------------2--2-----0----|
|                                                                  |
|------------------------------------------------------------------|
|---8--------------------------------------------------------------|
|-8-8-[let ring]---------------------------------------------------|
|-8----------------------------------------------------------------|
|------------------------------------------------------------------|
|------------------------------------------------------------------|

1:46
|------------------------[Clean]-----------------------------------|
|------------------------------------------------------------------|
|----9--------9-------8--7--9--6b7--6--6--5--4b5r4-----------------|
|-8--8--8--9--9----9--------------------------------------4-----2--|
|-7-----7--7--7-------6--5--7--4b5--4--4--3--2b3r2-----------------|
|------------------7---------------------------------2--2-----0----|
|                                                                  |
|------------------------------------------------------------------|
|---8----------8---8----7---7----6---6----5---5-^------------------|
|-8-8--------8---8----7---7----6---6----5---5---5~~----------------|
|-8----------------------------------------------------------------|
|------------------------------------------------------------------|
|------------------------------------------------------------------|
             [Bend double stops back and forth]

1:52                                   x4
|---------------------------------------|
|---------------------------------------|
|----t----------------------------------|
|---(5)---------------------------------|
|--------------2-3---3h4---4--4-3--3-2--|
|--1/3br-1-0-1-----2-----2-5--5-4--4-3--|
                           *  * *  *

2:12
|-----------18-t24p=20b21-t24p-21b22------------
|-----------------------------------------------
|---0-------------------------------------0-----
|---2---0---------------------------------2---0-
|-1-3---1-------------------------------1-3---1-
|-0-----0-----------------------------0-0-----0-
  *     *                             * *   *
                          x4
-18-t24p=20b21-t24p-19b20--|
---------------------------|
---------------------------|
---------------------------|
---------------------------|
---------------------------|

Fill 2:47
|---|
|---|
|---|
|---|
|-1-|
|-0-|
  *

 2:48                                             x4
|--------------------------------------------------|
|--------------------------------------------------|
|----------------------(6/7)-----------------------|
|-4\\3-3------0----0----0------4\\3--3-------------|
|-5\\4-4---2--4----4--4--------5\\4--4---------1b--|
|--------1-------0--------------------(1)-3h4--0---|

3:18 (solo)                                                                 x4
|----------------------------------------------------------------------------|
|----------------------------------------------------------------------------|
|----------------------------------------------------------------------------|
|-7---4---------------------------------6---3--------------------------------|
|----------^-------^-------^-----^---------------^-------^-------^-----^-----|
|-5---2----3/(4\2)-3(/4\2)-3/(4)-3/(4)--4---1----2/(3\1)-2(/3\1)-2/(3)-2/(3)-|


3:37                                                                       x4
|---------------------------------------------------------------------------|
|---------------------------------------------------------------------------|
|-----4b----------------------------0-0-0-----------------------------------|
|----------0-0---0-0--0-------------6-6-6-0-0-0-0r--0r--0----0-0---0-0--0---|
|-2-3-2b---4-4-4-1-2--1b---3-3-2px--------5-5-5-4/5-4/5-6b---4-4-4-1-2--1b--|
|-1-2-1--------3-----------2-2-1px-------------------------------3----------|
Bend most root notes.

4:18                                   x4
|---------------------------------------|
|---------------------------------------|
|----t----------------------------------|
|---(5)---------------------------------|
|--------------2-3---3h4---4--4-3--3-2--|
|--1/3br-1-0-1-----2-----2-5--5-4--4-3--|
                           *  * *  *
4:38                                                                        x4
|----------------------------------------------------------------------------|
|----------------------------------------------------------------------------|
|----------------------------------------------------------------------------|
|-7---4---------------------------------6---3--------------------------------|
|----------^-------^-------^-----^---------------^-------^-------^-----^-----|
|-5---2----3/(4\2)-3(/4\2)-3/(4)-3/(4)--4---1----2/(3\1)-2(/3\1)-2/(3)-2/(3)-|

4:55
Fill
|---|
|---|
|---|
|---|
|-1-|
|-0-|
  *

4:56                                              x4
|--------------------------------------------------|
|--------------------------------------------------|
|----------------------(6/7)-----------------------|
|-4\\3-3------0----0----0------4\\3--3-------------|
|-5\\4-4---2--4----4--4--------5\\4--4---------1b--|
|--------1-------0--------------------(1)-3h4--0---|

5:11
|------------------------[Clean]-----------------------------------|
|------------------------------------------------------------------|
|----9--------9-------8--7--9--6b7--6--6--5--4b5r4-----------------|
|-8--8--8--9--9----9--------------------------------------4-----2--|
|-7-----7--7--7-------6--5--7--4b5--4--4--3--2b3r2-----------------|
|------------------7---------------------------------2--2-----0----|
|                                                                  |
|------------------------------------------------------------------|
|---8--------------------------------------------------------------|
|-8-8-[let ring]---------------------------------------------------|
|-8----------------------------------------------------------------|
|------------------------------------------------------------------|
|------------------------------------------------------------------|

5:17
|------------------------[Clean]-----------------------------------|
|------------------------------------------------------------------|
|----9--------9-------8--7--9--6b7--6--6--5--4b5r4-----------------|
|-8--8--8--9--9----9--------------------------------------4-----2--|
|-7-----7--7--7-------6--5--7--4b5--4--4--3--2b3r2-----------------|
|------------------7---------------------------------2--2-----0----|

5:24
|------------------------[Clean]-----------------------------------|
|------------------------------------------------------------------|
|----9--------9-------8--7--9--6b7--6--6--5--4b5r4-----------------|
|-8--8--8--9--9----9--------------------------------------4-----2--|
|-7-----7--7--7-------6--5--7--4b5--4--4--3--2b3r2-----------------|
|------------------7---------------------------------2--2-----0----|
|                                                                  |
|------------------------------------------------------------------|
|---8--------------------------------------------------------------|
|-8-8-[let ring]---------------------------------------------------|
|-8----------------------------------------------------------------|
|------------------------------------------------------------------|
|------------------------------------------------------------------|

5:31
|------------------------[Clean]-----------------------------------|
|------------------------------------------------------------------|
|----9--------9-------8--7--9--6b7--6--6--5--4b5r4-----------------|
|-8--8--8--9--9----9--------------------------------------4-----2--|
|-7-----7--7--7-------6--5--7--4b5--4--4--3--2b3r2-----------------|
|------------------7---------------------------------2--2-----0----|

For the outro just loosen your top string and slap it against the fretboard.



Performance notes:
Throughout the song, and in the later riffs, alot of things are bent,
but only half a step at most. Its loose playing so try to keep
that in mind throughout.

In Riff 2, for the chords, mute them quite heavy and pull off
the root notes quickly once played to get it sounding like the
CD. And hammer on that octave note with your left hand only. If you dont,
dont worry about it. It just sounds like theres more depth to it.

Riff 5
On a 22 fret guitar, you tap with the edge of your pick between
the end of the neck and the bridge pick up, causing the pick up
to be used as a fret. Then pull off to the fretted notes and
bend them, so the only attack on the notes you get is on 18th
fret and 24th fret.

For a 24 fret guitar just tap on the 24th fret as normal.

Riff 6
Very quick slides. Listen to CD for timing.[/code]

comments
We did not receive enough feedback on this tab! Please rate:
print report bad tab
1 2 3 4 5
I want to post or [tab]
guest
You may want to rate the tab now too:
select rating
Please do not post tabs as comments. Select "correction" instead!