Oops, an error
Loading. Please wait.

Big Mouth Tab

1,124 views 1 this week
no commentswrite comment
1 2 3 4 5
please rate
add to favorites
launch autoscroll
font size
0
reset
how to read this tab
guitar tuner
Autoscroll
slow
fast
+/-
esc
set tempo
stop
Help us to improve Ultimate-Guitar.com Take our survey!
×
Difficulty
novice
okay, I've notice that there aren't many gorilla biscuits songs on here, so i 
decided to make my own. this is my first time so don't be too harsh.

main riff e|---------------------------------|  
          b|---------------------------------|
          G|-------------------5-8-----6-----|
          B|44---------------4-5-8-7/8-888888|
          A|44---------------4-3-6-7/8-888888|
          E|22---------------2-----5/6-666666|

the riff that comes in at "why don't you..shut the fuck up now."
     
          e|-------------------------------|
          b|-------------------------------|
          G|7-7-7-7-6-6-6-6-5-5-5-5-4-4-4-4|
          B|5-5-5-5-4-4-4-4-3-3-3-3-2-2-2-2|
          A|-------------------------------|
          E|-------------------------------

|breakdown: e|-----------------------|
            b|-----------------------|
            G|------------8-7--------|
            B|7xx7xx7xx7xx8-7--------|
            A|7xx7xx7xx7xx6-5--------|
            E|5xx7xx7xx7xx-----------|

the "X"'s mean that you mute the strings. put your hand on the strings to make "crunch" sound. 
     
Suggest correction
Give kudos to tab author, rate the tab!
1 2 3 4 5
comments
print report bad tab
guest
You may want to rate the tab now too:
select rating
Wanna post a correction for this tab? Suggest correction