Oops, an error
Loading. Please wait.

12D3 Tab

version 1
version 1
11,265 views 12 this week
3 commentsread comments
1 2 3 4 5
x 3
add to favorites
launch autoscroll
font size
0
reset
how to read this tab
guitar tuner
Autoscroll
slow
fast
+/-
esc
set tempo
stop
Help us to improve Ultimate-Guitar.com Take our survey!
×
Title: 12D3
Artist: GORILLAZ
Tabbed By: Edward Aris Fajardo
Email Address: ward_faj@yahoo.com

Guitar 1
e|-------3-------------------------------| --\ 
B|-------3-------------------------------|    \ 
G|---0-0-0-------------------------------|     \ played all the time
D|---0-0-0---0-2-0-5-0-------------------|     /
A|---2-2-2-------------------------------|    / 
E|---3-3-3-------------------------------| --/

Guitar 2 (played after the chorus part)
e|--9-9-9-9-7-7-9-----9-9-9-9-7-7-9-----9-9-9-9-7-7-9-|
B|----------------------------------------------------| 
G|----------------------------------------------------|  
D|----------------------------------------------------|
A|----------------------------------------------------|
E|----------------------------------------------------|

e|--9-9-7-6—4-2-0-2/4-----------------------------|
B|------------------------------------------------|
G|------------------------------------------------|
D|------------------------------------------------|
A|------------------------------------------------|
E|------------------------------------------------|
I think the one on the first guitar sounds right but I'm not sure for the second one
This is my first tab so for comments just email me at my email add.
Baguhan pa lang ako sa mga tablatures kaya baka hindi maganda ang pagka tab. 
But this tab is not the first tab that I've submitted.
Suggest correction
Give kudos to tab author, rate the tab!
1 2 3 4 5
comments
print report bad tab
3 comments total.
0 reply
#1beckfan 10 Jul 05, 2007 10:52 AM

I keep playing and it doesnt sound the same. Is the guitar supposed to be tuned flat?

+1 reply
inoino3 41 Sep 03, 2007 09:42 PM

i think playing it like this is wrong. it doesn't sound like the song.

D|---0-2-0-5-0-------------------|

this is a much better sounding piece.

D|---0-2b-0-3b-0-----------------|

0 reply
The_Fuzz22 51 Apr 20, 2008 02:14 PM

Epic fail.

guest
You may want to rate the tab now too:
select rating
Wanna post a correction for this tab? Suggest correction