Oops, an error
Loading. Please wait.

12D3 Tab

version 4
version 4
3,715 views 3 this week
1 commentread comment
1 2 3 4 5
1 last vote to show rating
add to favorites
launch autoscroll
font size
0
reset
how to read this tab
guitar tuner
Autoscroll
slow
fast
+/-
esc
set tempo
stop
Help us to improve Ultimate-Guitar.com Take our survey!
×
Author
Difficulty
novice
h = hammer on
v = vibrato

e|---------------------------------------| --\ 
B|---------------------------------------|    \ 
G|---------------------------------------|     \ played all the time
D|---0-0-0-2-0-3-0-----------------------|     /
A|---------------------------------------|    / 
E|---------------------------------------| --/

Piano part
e|--2-2-2-0-2-3--2---2-2-2-0-2-3--2---2-2-2-0-2-3--2--|
B|----------------------------------------------------| 
G|----------------------------------------------------|  
D|----------------------------------------------------|
A|----------------------------------------------------|
E|----------------------------------------------------|

e|--2-0-------------------------------------------|
B|------3-0-----0-2h3~----------------------------|
G|------------2-----------------------------------|
D|------------------------------------------------|
A|------------------------------------------------|
E|------------------------------------------------|

This is my first tab. I think the piano part is correct.
Suggest correction
Give kudos to tab author, rate the tab!
1 2 3 4 5
comments
print report bad tab
1 comment total.
0 reply
DgorillazguyH 341 Apr 09, 2010 09:04 PM

E|-----------3----------------------------------------------
B|-----------3----------------------------------------------
G|-----------0----------------------------------------------
D|----0--0---0----0-2-0-3-0---------------------------------
A|----2--2---2----------------------------------------------
E|----3--3---3---------------------------------------------
i think this is the main riff

guest
You may want to rate the tab now too:
select rating
Wanna post a correction for this tab? Suggest correction