Oops, an error
Loading. Please wait.

19 2000 Bass Tab

version 1
version 1

Whole song

Interactive

25,090 views 51 this week
2 commentsread comments
1 2 3 4 5
x 14
add to favorites
launch autoscroll
font size
0
reset
guitar tuner
×
Best way to learn
"19 2000"
Autoscroll
slow
fast
+/-
esc
set tempo
stop
Author
[Part A]
G|-----------------------------|
D|----------5---5-3-5----------|
A|------5----------------------|
E|--3--------------------------|

[Part B]
G|-----------------------------|
D|----------7---7-3-7----------|
A|------7----------------------|
E|--5--------------------------|

(very simple bass line, the order jus goes: A(x2), B(x1), A(1x)
just repeat that for the whole song, theres a pause before "get the cool shoeshine" part)
Suggest correction
comments
print report bad tab
2 comments total.
0 reply
munchryan-nicholson 10 Jun 06, 2015 12:57 AM

I find it a lot easier to play
G|-----------------------------|
D|----------7---7-- 7----------|
A|------7---------8-------------|
E|--5--------------------------|

0 reply
drwebster 10 May 21, 2016 08:15 AM

This is way better than the one tab that I had found. Thanks a lot!

guest
You may want to rate the tab now too:
select rating
Wanna post a correction for this tab? Suggest correction