Oops, an error
Loading. Please wait.

5 4 Tab

version 1
version 1

Intro

Interactive

6,892 views 6 this week
3 commentsread comments
1 2 3 4 5
accurate
x 9
add to favorites
launch autoscroll
font size
0
reset
how to read this tab
guitar tuner
Autoscroll
slow
fast
+/-
esc
set tempo
stop
Help us to improve Ultimate-Guitar.com Take our survey!
×
Author
Difficulty
novice
5/4 by Gorillaz
()()()()()()()()()()()()()()()()()()()()()()()()()()()()()()()()()()()()()()
Tabbed by: phillbe
Tunning: Standard 

sounds great to me... enjoy!

e------------------------------|
b------------------------------|
g------------------------------|
d--2-2--7-7-7--2-2--5-5-5------|
a--3-3--8-8-8--3-3--6-6-6------|
E--3-3--8-8-8--3-3--6-6-6------|



| /  slide up
| \  slide down
| h  hammer-on
| p  pull-off
| ~  vibrato
| +  harmonic
| x  Mute note

()()()()()()()()()()()()()()()()()()()()()()()()()()()()()()()()()()()()()()
Suggest correction
comments
print report bad tab
3 comments total.
0 reply
drwhat 10 wrote on June 22 2010, 02:39 pm

havent seen many chords like this before

0 reply
Lucas_Gelati 37 wrote on October 11 2010, 11:39 pm

To me it's easier like
e------------------------------|
b------------------------------|
g-------2-2-2------------------|
d--2-2--3-3-3--2-2--5-5-5------|
a--3-3--3-3-3--3-3--6-6-6------|
E--3-3---------3-3--6-6-6------|

0 reply
Snax110 10 wrote on February 19 2012, 06:17 am

I'm pretty positive that Lucas_Gelati is correct. On the record you can actually hear his hand sliding from 3 to 6 on the third chord. You can't hear anything when he's going from the first chord to the second one though, which probably means he just moved up a string. Either way they're both correct.

guest
You may want to rate the tab now too:
select rating
Please do not post tabs as comments. Select "correction" instead!