Oops, an error
Loading. Please wait.

68 State Tab

3,565 views 1 this week
1 commentread comment
1 2 3 4 5
accurate
x 4
add to favorites
launch autoscroll
font size
0
reset
how to read this tab
guitar tuner
Tab Pro tools
  • play this tab
  • loop segment
  • change instrument
  • show fretboard
  • metronome
×
Best way to learn
"68 State"
Autoscroll
slow
fast
+/-
esc
set tempo
stop
Difficulty
novice
-----------------------------------------------------------------------
                             68 State - Gorillaz
-----------------------------------------------------------------------
Tabbed by:
Email:

Tuning: standard

e|---------------------------------------------------------------------------|
B|----------------14-----------------12--------------------------------------|
G|----------------14-----------------13--------------------------------------|
D|----14-14-14-14-14--x-x--14-14-14-14-14-x-x--------------------------------|
A|---------------------------------------------------------------------------|
E|---------------------------------------------------------------------------|

e|--------------9---9-12-9-12/14--12-9--9------------------------------------|
B|---7~--7-10-7---------------------------12\10------------------------------|
G|---------------------------------------------------------------------------|
D|---------------------------------------------------------------------------|
A|---------------------------------------------------------------------------|
E|---------------------------------------------------------------------------|

e|-----------------------------------------------------------------------------|
B|-------5--5-5----------------------------------------------------------------|
G|-----5--5--5--7--------------------------------------------------------------|
D|----------------8------------------------------------------------------------|
A|-----------------------------------------------------------------------------|
E|-----------------------------------------------------------------------------|

| /  slide up
| \  slide down
| h  hammer-on
| p  pull-off
| ~  vibrato
| +  harmonic
| x  Mute note
===============================================================================
comments
print report bad tab
1 comment total.
0 reply
weeble1207 wrote on July 18 2008, 08:18 pm

e|-----------------------------------------------------------------|
B|---5-5-5-5---------5-5-5-5---------5-5-5-5--------5-5-5-5--------|
G|-----------2-------------------------------2--------------4------|
D|---------------------------2-------------------------------------|
A|-----------------------------------------------------------------|
E|-----------------------------------------------------------------|

replace the beginning with this

I want to post or [tab]
guest
You may want to rate the tab now too:
select rating
Please do not post tabs as comments. Select "correction" instead!