Oops, an error
Loading. Please wait.

68 State bass

version 3
version 3

Whole song

64 views 1 this week
no commentswrite comment
1 2 3 4 5
3 more votes to show rating
add to favorites
×
Save as Personal and add changes to this tab that will be seen only by you. Learn more ›
×
You can save this tab as Personal to edit and correct it or add notes. All changes will be seen only by you. Learn more »
launch autoscroll
font size
0
reset
guitar tuner
edit
Autoscroll
slow
fast
+/-
esc
set tempo
stop
Author
Difficulty
Standard Tuning


[Intro] 
Repeat through whole song besides break

G|---------------------------------------------------------------------------|
D|---------------------------------------------------------------------------|
A|-9-9-9-9-9-9-9--7-7-7-7-7-7-7-7-7/-----------------------------------------|
E|----------------------------------5-5-5-5-5-5-5--7-7-7-7-7-7-7-7-7/--------|

This is the correct way, but if you cant get that transition from the E string 
7th fret to the D string 9th fret you don't have to play is this way just play
the one above

G|---------------------------------------------------------------------------|
D|-----------------------------------------------------9---------------------|
A|-9-9-9-9-9-9-9--7-7-7-7-7-7-7-7-7/-----------------------------------------|
E|----------------------------------5-5-5-5-5-5-5--7-7--7-7-7-7-7-7/---------|

[Break]

G|---------------------------------------------------------------------------|
D|---------------------------------------------------------------------------|
A|-------------1-2--2-2-2--4-2-0-------------0-2--2-2--0-0-2-0---------------|
E|-2-2-2-0-2-0-------------------2-2-2-0-2-0---------------------------------|

[Outro]

Once again besides for the break play the intro throughout the entire song
 
[Song Order]
00:00-00:10 [No Bass]
00:10-01:54 [Intro] 14x
01:54-02:08 [Break] 2x
02:08-03:08 [Intro] 8x
03:08-03:22 [Break] 2x
03:22-03:52 [Intro] 4x
03:52-03:59 [No Bass]
03:59-04:50 [Intro] aka [Outro] here 7x 
 

************************************

| /  Slide up

************************************

            
            
Suggest correction
Creating personal tab
Creating personal tab
You can edit any tab online and save it as your Personal.

You can edit, replace or remove any tab part or add personal notes – all changes will be seen only by you.

Personal tabs can be accessed anytime from any device, even offline.
Learn more »
Give kudos to tab author, rate the tab!
1 2 3 4 5
comments
print report bad tab
guest
You may want to rate the tab now too:
select rating
Wanna post a correction for this tab? Suggest correction