Oops, an error
Loading. Please wait.

Bill Murray Bass Tab

5,689 views 3 this week
1 commentread comment
1 2 3 4 5
excellent!
x 4
add to favorites
launch autoscroll
font size
0
reset
guitar tuner
Tab Pro tools
  • play this tab
  • loop segment
  • change instrument
  • show fretboard
  • metronome
×
Best way to learn
"Bill Murray"
Autoscroll
slow
fast
+/-
esc
set tempo
stop
Contributor
Difficulty
novice
Bill Murray By Gorillaz
(From The Feel Good Inc. Single)

This is a very easy song, most of it is just open string, and its mainly just on the 
fret. Very fun to play as well :P

(Just a sidenote, most of the song is an instrumental, so i'll try to identify the 
parts)

(Tuning = GDAE)

You should hear the song first to get the true feeling of it, obviously.


-Instrumental-

G|--------|--------|--------|--------|
D|--------|--------|--------|--------|
A|000-0---|--------|000-0---|--------|
E|---0----|-----2-0|---0----|-----4-0|
(8X)

-Bass Solo (About 55 Seconds In)-

G|--------|--------|--------|--------|
D|--------|--------|--------|--------|
A|00---0--|--------|00---0--|--------|
E|---0---0|-222-0--|---0----|22202-0-|

G|--------|--------|--------|--------|
D|--------|--------|--------|-222-0--|
A|00---0--|--------|00---0--|--------|
E|---0----|222-0---|---0---0|--------|
(2X)

-Second Instrumental- (After Solo)

G|--------|--------|--------|--------|
D|--------|--------|--------|--------|
A|000-0---|--------|000-0---|--------|
E|---0----|---222-0|---0----|---444-8|
(6X)

-Second Half Of Trumpet Section (at 2:42)

G|--------|--------|--------|--------|
D|--------|--------|--------|--------|
A|000-0---|--------|000-0---|--------|
E|---0----|-----2-0|---0----|-----4-0|

G|--------|--------|--------|--------|
D|--------|--------|--------|--------|
A|000-0---|--------|000-0---|--------|
E|---0----|-----2-0|---0----|--------|

-Ending Instrumental- (Accompanied By 'Too Many Days To Get Lost...')

G|--------|--------|--------|--------|
D|--------|--------|--------|--------|
A|000-0---|--------|000-0---|--------|
E|---0----|-----2-0|---0----|-----4-0|
(8X)

-End-

I did the best i could on the beats.  The very last section (Ending Instrumental) may be 
10 times, but it depends on what version of the song you have. I believe there are 2 versions.

-Chris Kolar
-Ckolar612@yhoo.com
-BassFishin
comments
print report bad tab
1 comment total.
+2 reply
xAngelsOfHellx wrote on December 16 2014, 10:15 pm

Maybe more like this?

G|--------|--------|--------|--------|
D|777-7---|--------|777-7---|--------|
A|---7----|-----9-7|---7----|----11-7|
E|--------|--------|--------|--------|
(x8)

G|--------|--------|--------|--------|
D|77---7--|--------|77---7--|--------|
A|---7---7|-999-7--|---7----|99979-7-|
E|--------|--------|--------|--------|

G|--------|--------|--------|-999-7--|
D|77---7--|--------|77---7--|--------|
A|---7----|999-7---|---7---7|--------|
E|--------|--------|--------|--------|
(x2)

G|--------|--------|--------|-------5|
D|777-7---|--------|777-7---|---666--|
A|---7----|---999-7|---7----|--------|
E|--------|--------|--------|--------|
(6X)

G|--------|--------|--------|--------|
D|777-7---|--------|777-7---|--------|
A|---7----|-----9-7|---7----|----11-7|
E|--------|--------|--------|--------|

G|--------|--------|--------|--------|
D|777-7---|--------|777-7---|--------|
A|---7----|-----9-7|---7----|--------|
E|--------|--------|--------|--------|

G|--------|--------|--------|--------|
D|777-7---|--------|777-7---|--------|
A|---7----|-----9-7|---7----|----11-7|
E|--------|--------|--------|--------|
(x8)

I want to post or [tab]
guest
You may want to rate the tab now too:
select rating
Please do not post tabs as comments. Select "correction" instead!