Oops, an error
Loading. Please wait.

Clint Eastwood Bass Tab

version 4
version 4

Interactive

5,977 views 9 this week
2 commentsread comments
1 2 3 4 5
1 last vote to show rating
add to favorites
launch autoscroll
font size
0
reset
guitar tuner
Autoscroll
slow
fast
+/-
esc
set tempo
stop
Help us to improve Ultimate-Guitar.com Take our survey!
×
Author
Difficulty
novice
HOOK
D|--------------------------------|
A|--------------------------------|
E|--------------------------------|
B|0---5--1-0---5--1-0---5--1-0---7|
VERSE
D|--------------------------------------|
A|--------------------------------------|
E|--------------------------------------|
B|0---5--1-0---5--1-0---5--1-0---5-3-2-1|
THIS IS CORRECT THE BASSLINE!!!!!

THIS IS THE MELODY PLAYED ON PIANO OR GUITAR
G|----------------|-----------------|
D|-----1-1-----1--|-----1-1---------|
A|---------1------|---------2-1-0---|
E|-0--------------|-0-------------4-|
Suggest correction
Give kudos to tab author, rate the tab!
1 2 3 4 5
comments
print report bad tab
2 comments total.
+1 reply
skg91 10 Feb 26, 2009 10:54 AM

I don't know if this bass line is right or not but he is definately right that all the other tabs aren't the bass

0 reply
marcproffit 10 Dec 07, 2015 08:46 AM

Clearly the only good bass tabs on this song.

No doubt about the b string.

guest
You may want to rate the tab now too:
select rating
Wanna post a correction for this tab? Suggest correction