Oops, an error
Loading. Please wait.
We have an official Clint Eastwood tab made by UG professional guitarists. Check out the tab »
×

Clint Eastwood tab

version 5
version 5

Whole song

Interactive

Video

2,698 views 39 this week
1 commentread comment
1 2 3 4 5
x 3
add to favorites
×
Save as Personal and add changes to this tab that will be seen only by you. Learn more ›
×
You can save this tab as Personal to edit and correct it or add notes. All changes will be seen only by you. Learn more »
launch autoscroll
font size
0
reset
how to read this tab
guitar tuner
backing track
0:00
0:00
edit
Autoscroll
slow
fast
+/-
esc
set tempo
stop
About this tab version
This one includes the bass notes along with the original rhythm. Was this info helpful? Yes No
Song: Clint Eastwood
Artist: Gorillaz
Album: Gorillaz

Tuning: Drop D  Capo on 1  

NOTE: This is the rhythm for the entire song,
bass notes included.

[Riff]

e|-------1-------1-------1-------1----------|
B|-------3-------3-------3-------3----------|
G|-------2-------2-------2-------2----------|
D|-------0-------0-------0-------0----------|
A|-----------0---------------0--------------|
D|---0---------------0----------------------|

Just repeat this through the entire song.

[No Capo Version]

e|-------2-------2-------2-------2----------|
B|-------4-------4-------4-------4----------|
G|-------3-------3-------3-------3----------|
D|-------1-------1-------1-------1----------|
A|-----------1---------------1--------------|
D|---1---------------1----------------------|


            
            
Suggest correction
Creating personal tab
Creating personal tab
You can edit any tab online and save it as your Personal.

You can edit, replace or remove any tab part or add personal notes – all changes will be seen only by you.

Personal tabs can be accessed anytime from any device, even offline.
Learn more »
Give kudos to tab author, rate the tab!
1 2 3 4 5
comments
print report bad tab
1 comment total.
0 reply
ProTaco 33 May 20, 2016 10:32 AM, edited at 02:33 pm

Sounds pretty good :O
Pretty good for people who can't do the barre chords :)

guest
You may want to rate the tab now too:
select rating
Wanna post a correction for this tab? Suggest correction