Oops, an error
Loading. Please wait.

Clint Eastwood Bass Tab

version 7
version 7

Interactive

25,374 views 111 this week
no commentswrite comment
1 2 3 4 5
x 21
add to favorites
launch autoscroll
font size
0
reset
guitar tuner
Autoscroll
slow
fast
+/-
esc
set tempo
stop
Help us to improve Ultimate-Guitar.com Take our survey!
×
Author
Tuning
D# G# C# F# A# D#
Tune down a half step

The song contains three parts


[Main Riff]

Gb|------------|
Db|------------|
Ab|---7-7----7-|
Eb|-0------7---|


[Descending Riff]

Gb|----------------|
Db|----------------|
Ab|---7-7----------|
Eb|-0------8-7-5-3-|


[Crashes]

Gb|-----------------|
Db|-----------------|
Ab|---7-7-----------|
Eb|-0------7-7-7-7--|

Now, play them in this order:

MAIN RIFF X3
DESCENDING RIFF
MAIN RIFF X3
DESCENDING RIFF
MAIN RIFF X3
DESCENDING RIFF
MAIN RIFF X3
CRASHES

And just keep playing that pattern over and over.
Suggest correction
comments
print report bad tab
guest
You may want to rate the tab now too:
select rating
Wanna post a correction for this tab? Suggest correction