Oops, an error
Loading. Please wait.

Dirty Harry Tab

version 2
version 2

Whole song

Interactive

29,089 views 123 this week
4 commentsread comments
1 2 3 4 5
x 11
add to favorites
launch autoscroll
font size
0
reset
how to read this tab
guitar tuner
×
Best way to learn
"Dirty Harry"
Autoscroll
slow
fast
+/-
esc
set tempo
stop
Author
Difficulty
-------------------------------------------------------------------------------
                             Dirty Harry - Gorillaz
-------------------------------------------------------------------------------
Tabbed by:Frederic Philippi
Email:fliplippi@hotmail.com

Tuning:normal

e|-----------------------------------------------|
B|-----------------------------------------------|
G|-----------------------------------------------|
D|------3-8--66----------------3-8--6------------|
A|---4----------864---------4---------864--------|
E|6----------------6-----6---------------6-------|

The song go's like this. It's probably not 100 % but it is almost good. Greetz



Suggest correction
comments
print report bad tab
4 comments total. Showing first comments.
+1 reply
caraulan.victor 10 Nov 19, 2013 01:05 PM

More easy for beginners :
e|-----------------------------------------------|
B|-----------------------------------------------|
G|--------3--11-------------------3-1------------|
D|------3-------31--------------3-----31---------|
A|1--4------------41-----1--4-----------41-------|
E|-----------------------------------------------|

guest
You may want to rate the tab now too:
select rating
Wanna post a correction for this tab? Suggest correction