Oops, an error
Loading. Please wait.

Dirty Harry Bass Tab

version 5
version 5

Interactive

4,415 views 15 this week
no commentswrite comment
1 2 3 4 5
worth learning
x 3
add to favorites
launch autoscroll
font size
0
reset
guitar tuner
Tab Pro tools
  • play this tab
  • loop segment
  • change instrument
  • show fretboard
  • metronome
Autoscroll
slow
fast
+/-
esc
set tempo
stop
Contributor
Difficulty
novice
Song: Dirty Harry
Artist: Gorillaz
Album: Demon Days
Tabber: Jason Pack

Intro (1x)
=====================
|--------------------------|
|--------------------------|
|--------------------------|
|-4-6-6-9-13----\11-9-6----|

Verse
=====================
|-------------------------|-------------------|
|-------------------------|-------------------|
|-------------------------|-------------------|
|--6-9-13--\11-9-6--------|--6-9-13--\11-9-6--|

|-------------------------|-------------------|
|-------------------------|-------------------|
|-------------------------|-------------------|
|--6-9-13--\11-9-6--6-9-6-|--6-9-13--\11-9-6--|

Last 3 Phrases of Verse Before Bridge (1:40)
=====================
|-------------------------|---------------------------------------|
|-------------------------|---------------------------------------|
|-------------------------|------------11-13----------13-11-13-11-|
|--6-9-13--\11-9-6--6-9-6-|-6-9-13--13-------\11-9-6--------------|

|-----------------------------------|
|-----------------------------------|
|------------------13-13-11-11-13---|
|-6-9-13---11-9-6-------------------|
          (^Muted^)

Bridge
=====================
Variations between the two following riffs:

|-------------------------|           |---------------------|
|-------------------------|           |-------------1-------|
|-1--\4\8\13\8\13\--------|           |-1\13\1\13\1---4-1~~-|
|-------------------------|           |---------------------|
comments
We did not receive enough feedback on this tab! Please rate:
print report bad tab
1 2 3 4 5
I want to post or [tab]
guest
You may want to rate the tab now too:
select rating
Please do not post tabs as comments. Select "correction" instead!