Oops, an error
Loading. Please wait.

Dirty Harry Bass Tab

version 6
version 6

Interactive

11,895 views 42 this week
1 commentread comment
1 2 3 4 5
accurate
x 7
add to favorites
launch autoscroll
font size
0
reset
guitar tuner
Tab Pro tools
  • play this tab
  • loop segment
  • change instrument
  • show fretboard
  • metronome
Autoscroll
slow
fast
+/-
esc
set tempo
stop
Difficulty
intermediate
None of the tabs for this were right, so i was just playing it by ear.  I'm pretty
sure these are correct.

p=Pull of
h=hammer on
/=slide up
v=vibrato
\=slide down

Lead In:
G|----------|
D|----------|
A|-/6v-4----|
E|------6---|

Intro:
G|---------------|
D|-----3--3p1----|
A|-1-4-------4-1-|
E|---------------|(3x)

Lead In:
G|----------|
D|----------|
A|-/6v-4----|
E|------6---|

Verse(1):
G|-------------------------|
D|-----3--3p1--------------|
A|-1-4-------4-1-/6v-4-----|
E|--------------------6----|(4x)

Fill(1):
G|-------------------------|
D|-----3--3p1--------------|
A|-1-4-------4-1-/6v-4-----|
E|--------------------6----|(4x)

Verse(2): A Little Funkier
G|-------------------------|
D|-----3--3p1--------------|
A|-1-4-------4-1-/6v-4-----|
E|--------------------6----|(4x)

Fill(2): with slight variations up and down the scales
G|----------------------|
D|-----3--3p1-----------|
A|-1-4-------4-1-/6v-4--|
E|--------------------6-|(4x)

Rap: slight variations on and off
G|------------|
D|------------|
A|-1-1/(10v)\-|
E|------------|

Fill to end.

And there you have it: "Dirty Harry" by Gorillaz
comments
print report bad tab
1 comment total.
0 reply
Improvised88 wrote on May 7 2013, 10:18 am

good tab. it may be a bit off, but its close enough where you can figure it out.

I want to post or [tab]
guest
You may want to rate the tab now too:
select rating
Please do not post tabs as comments. Select "correction" instead!