Oops, an error
Loading. Please wait.

Empire Ants Bass Tab

version 1
version 1

Whole song

Interactive

5,816 views 6 this week
1 commentread comment
1 2 3 4 5
x 3
add to favorites
launch autoscroll
font size
0
reset
guitar tuner
Autoscroll
slow
fast
+/-
esc
set tempo
stop
Help us to improve Ultimate-Guitar.com Take our survey!
×
Basically the bass doesn't start until about 2 minutes into the song.

G-----------------------------------------------|
D--------5--------------------------------------| x2
A--6-6-6----3---3-3-3---------------------------|
E-----------------------------------------------|

G-----------------------------------------------|
D--------5--------------------------------------| x1
A--5-5-5----3---3-3-3---------------------------|
E-----------------------------------------------|

Reapeat All for however long the rest of it lasts

Everyone buy Plastic Beach. It's awesome

Love,
Holli
Suggest correction
Give kudos to tab author, rate the tab!
1 2 3 4 5
comments
print report bad tab
1 comment total.
0 reply
JamminBoy 199 Apr 02, 2010 08:03 AM

Just place that first C note an octave higher, and that shouldf sound pretty spot on. Like this:
G-----------5-------------|
D--------5----------------|
A--6-6-6--------3-3-3-----|
E-------------------------|

Love this song, good tab :)

guest
You may want to rate the tab now too:
select rating
Wanna post a correction for this tab? Suggest correction