Oops, an error
Loading. Please wait.

Empire Ants Bass Tab

version 2
version 2

Whole song

Interactive

5,217 views 21 this week
no commentswrite comment
1 2 3 4 5
excellent!
x 5
add to favorites
launch autoscroll
font size
0
reset
guitar tuner
Autoscroll
slow
fast
+/-
esc
set tempo
stop
Help us to improve Ultimate-Guitar.com Take our survey!
×
Difficulty
novice
G -----------------------------------------------|
D --------5-------------------5------------------|
A --6-6-6---3--333------6-6-6---3-33333----------|
E -----------------------------------------------|

G -----------------------------------------------|
D --------5---------------------3-------5--------|
A --5-5-5---3--33-3-3-----5-5-5---3-3335---------|
E -----------------------------------------------|
comments
print report bad tab
I want to post or [tab]
guest
You may want to rate the tab now too:
select rating
Please do not post tabs as comments. Select "correction" instead!