Oops, an error
Loading. Please wait.

Every Planet We Reach Is Dead Bass Tab

version 1
version 1

Whole song

Interactive

2,872 views 1 this week
1 commentread comment
1 2 3 4 5
x 3
add to favorites
launch autoscroll
font size
0
reset
guitar tuner
Autoscroll
slow
fast
+/-
esc
set tempo
stop
Help us to improve Ultimate-Guitar.com Take our survey!
×
Author
Difficulty
novice
        its actually the whole song's lead........ (they use bass)
aaannndd it goes like this...

I lost my leg...
E|--------------------------|
B|--------------------------|
G|--------------------------|
D|--------------------------|
A|--7--7-7------------------|
E|--------10--10-10-8-8-7---|

so no lose... nothing to...
E|---------------------------------|
B|--------------------------   <---|i cant get this
G|---------------------------------|      part right... if anybody knows,,
D|---------------------------------|      >> ultimate_reject@yahoo.com.ph <<
A|---------------------------------|
E|--5-7-7-0---5-7-7-7/9-7-5--------|

how're we...
E|--------------------------|
B|--------------------------|
G|--------------------------|
D|--------------------------|
A|--5/7-7--5-5--5/7---------|
E|-----------------8-7--5---|


dreams arent...
E|--------------------------|
B|--------------------------|   HINT: Its just like before
G|--------------------------|        only in a different timing!!
D|--------------------------|
A|--7-7---------------------|
E|------10--10-10-8-8-7-----|

i loved...
E|--------------------------|
B|--------------------------|
G|--------------------------|
D|--------------------------|
A|--------------------------|
E|--5-7--7-0----------------|

but god only knows...
E|----------------------------------|
B|----------------------------------|
G|----------------------------------|
D|----------------------------------|
A|------------3-3-3-3-3-3-3-3-3/5-2-|
E|--5-5-5-3-3-----------------------|

i love...
E|---------------------------------|
B|---------------------------------|
G|---------------------------------|
D|---------------------------------|
A|------7-6-5----------------------|
E|--5-7-------7--------------------|

but what...
E|---------------------------------|
B|---------------------------------|
G|---------------------------------|
D|---------------------------------|
A|--------7--5--7------------------|
E|--5-5-5--------------------------|

picture on a...
E|---------------------------------|
B|---------------------------------|
G|---------------------------------|
D|---------------------------------|
A|--7-7-7--5-5--3-3-3--2-2---------|
E|---------------------------------|

down to the...
E|-----------------------------------|
B|-----------------------------------|
G|-----------------------------------|
D|-----------------------------------|
A|---3-3-3--5-5-5/7--7--7-7-5--5-5-4-|
E|-----------------------------------|

what are...
E|-----------------------------------|
B|-----------------------------------|
G|-----------------------------------|
D|-----------------------------------|
A|--------7-5-7----------------------|
E|--5-5-5----------------------------|

[THEN AFTER THAT, YOU HAVE TO PLAY THE LEAD ALL OVER AGAIN... (I CAN BARELY
 HEAR 2-D SINGING)... JUST PLAY THE LEAD ALL OVER AGAIN...]

just time it right as if you're bass is singing the whole song......
youll get it...

nice song anyway... lonely,... mysterious... sad...
DONT YOU DARE FORGET TO RATE...(^^,)
Suggest correction
Give kudos to tab author, rate the tab!
1 2 3 4 5
comments
print report bad tab
1 comment total.
0 reply
mpfloyd 47 Feb 08, 2010 07:38 PM

not accurate

guest
You may want to rate the tab now too:
select rating
Wanna post a correction for this tab? Suggest correction