Oops, an error
Loading. Please wait.

Every Planet We Reach Is Dead Tab

version 1
version 1

Intro

Interactive

6,542 views 6 this week
4 commentsread comments
1 2 3 4 5
accurate
x 4
add to favorites
launch autoscroll
font size
0
reset
how to read this tab
guitar tuner
Tab Pro tools
  • play this tab
  • loop segment
  • change instrument
  • show fretboard
  • metronome
×
Best way to learn
"Every Planet We Reach Is Dead"
Autoscroll
slow
fast
+/-
esc
set tempo
stop
This song is really easy to play,this tab might have to be altered a bit to

get the proper sound but it has the basics.

Intro,verse
E-------------------------------------------|
B-5-5-53-5--53-5-------5-5-53-5--53-5-------|
G-----------------2-0------------------2-0--|
D-------------------------------------------|  x2
A-------------------------------------------|
E-------------------------------------------|

And that's about it for the intro.Sorry I couldn't get the whole thing.

This is a great song and i hope you guys like the tab.
comments
print report bad tab
4 comments total. Showing first comments.
0 reply
GarrettWildCat wrote on August 3 2006, 03:58 am

B|-5-5---0-3-5---0-3-5-------------|
G|-----------------------2---0-----|
D|-------------------------------2-|

0 reply
bropark08 wrote on October 2 2006, 07:23 pm

terrible, not even close. it really goes like this:

e|12-12-12-10-12--12-10-12-----------|
B|-------------------------10s-8s-5v-|
G|-----------------------------------|
D|-----------------------------------|
A|-----------------------------------|
E|-----------------------------------|

0 reply
glugger wrote on November 25 2007, 05:56 am

more like this...
e|-12-12-7-10-12--10/12--5-3----12-12-7-10-12--10/1 2--5-3---| x2
B|-----5-|
on the second time through you vibrato the last note.

I want to post or [tab]
guest
You may want to rate the tab now too:
select rating
Please do not post tabs as comments. Select "correction" instead!