Oops, an error
Loading. Please wait.

Every Planet We Reach Is Dead Tab

version 1
version 1

Interactive

6,230 views 15 this week
1 commentread comment
1 2 3 4 5
x 8
add to favorites
launch autoscroll
font size
0
reset
how to read this tab
guitar tuner
Autoscroll
slow
fast
+/-
esc
set tempo
stop
Help us to improve Ultimate-Guitar.com Take our survey!
×
Difficulty
novice
---------------------------------------------------------------------
Every planet we reach is dead-Gorillaz
---------------------------------------------------------------------
Email:  gmfc_david_gmfc@yahoo.com
Tuning: Normal

Intro

E-------------------------------------------------|
B-3/5-5-0-3-5—0-3-5-------3/5-5-0-3-5—0-3-5-------|
G-------------------2-0------------------2-0------|
D-------------------------------------------------| x2
A-------------------------------------------------|
E-------------------------------------------------|

It gets slow at this point

Intro outro

E--------------------------------------|
B--------------------------------------|
G--------------------------------------|
D-2b-2-2-------------------------------|
A--------3-----------------------------|
E--------------------------------------|

Verse

E --------------------------------------------------|
B---------------------------------------------------|
G---------------------------------------------------|
D---------------------------------------------------|
A-7----7----5----3---3----2-------------------------|
E --------------------------------------------------|

Outro of verse

Play intro 3 times then on the 4th play this

E|-------------------3--------------------------------------------------------|
B|-5-5-5-5-5-5-5----5-3-------------------------------------------------------|
G|---------------------------2-0----------------------------------------------|
D|----------------------------------------------------------------------------|
A|----------------------------------------------------------------------------|
E|----------------------------------------------------------------------------|

That is as much of the song I could tab, since the rest is a played by violins

Good song I made it as accurate as possible
Suggest correction
comments
print report bad tab
1 comment total.
+2 reply
Brennon 10 Nov 22, 2008 02:23 PM

i think that the intro is easer played like this

E-------------------------------------------------|
B-3/5-5-3-5-5—3-5--------3/5-5-3-5-5—3-5----------|
G-------------------2-0------------------2-0------|
D-------------------------------------------------|
A-------------------------------------------------|
E-------------------------------------------------|

but other than that good tab

guest
You may want to rate the tab now too:
select rating
Wanna post a correction for this tab? Suggest correction