Oops, an error
Loading. Please wait.

Every Planet We Reach Is Dead Bass Tab

version 2
version 2

Whole song

Interactive

4,781 views 3 this week
no commentswrite comment
1 2 3 4 5
2 more votes to show rating
add to favorites
launch autoscroll
font size
0
reset
guitar tuner
Autoscroll
slow
fast
+/-
esc
set tempo
stop
Help us to improve Ultimate-Guitar.com Take our survey!
×
Difficulty
intermediate
----------------------------------------------------------------------------
              Every planet we reach is dead - Gorillaz
----------------------------------------------------------------------------

Tabbed By : Danger Dan
e-mail: Dlamb050@yahoo.com

I cant figure out the section past what I have tabbed because it's really hard to hear 
bass. But it's more than anything anyone else has tabbed on the net. And I tabbed most of 
on the A string because of the one slide from 12 to 5.

G|---------------------------------------------------------------------------|
D|---------------------------------------------------------------------------|
A|---------------------------------------------------------------------------|
E|--0--12-12--0--10-12--0--10-12---5-3---------------------------------------| Intro x6

G|---------------------------------------------------------------------------|
D|--14-14--12----------------------------------------------------------------|
A|-----------------15-15--14--12-12/14-----12--14-12--10--9--12/14--12-10----|
E|--------------12---------------------12------------------------------------|Chorus 1

G|---------------------------------------------------------------------------|
D|---------------------------------------------------------------------------|           
         Then Intro x2
A|-12-14-10------------------------------------------------------------------|
E|----------12-12------------------------------------------------------------|

G|---------------------------------------------------------------------------|           
              Chorus 2
D|--14-14--12----------------------------------------------------------------|
A|-----------------15-15-14-----12-12/14------12-14-12-10---12-12--12\5--12--|
E|--------------12-----------12-----------12---------------------------------|

G|---------------------------------------------------------------------------|
D|---------------------------------------------------------------------------|
A|-10-12--12/14--12\10-----10-10--12/14--12--10-9-----------9--5-7-----------|
E|---------------------------------------------------7--7-7------------------|


| /  slide up
| \  slide down
| h  hammer-on
| p  pull-off
| ~  vibrato
| +  harmonic
| x  Mute note
===============================================================================
Suggest correction
Give kudos to tab author, rate the tab!
1 2 3 4 5
comments
print report bad tab
guest
You may want to rate the tab now too:
select rating
Wanna post a correction for this tab? Suggest correction