Oops, an error
Loading. Please wait.

Every Planet We Reach Is Dead Tab

version 2
version 2

Interactive

6,734 views 36 this week
1 commentread comment
1 2 3 4 5
please rate
add to favorites
launch autoscroll
font size
0
reset
how to read this tab
guitar tuner
Autoscroll
slow
fast
+/-
esc
set tempo
stop
Help us to improve Ultimate-Guitar.com Take our survey!
×
Author
Difficulty
novice
-------------------------------------------------------------------------------
                             EVERY PLANET WE REACH IS DEAD - Gorillaz
-------------------------------------------------------------------------------
Tabbed by: NoSurprises11
Email: ThreeEleven311am@yahoo.com

Tuning: standard

e|-12-12-7-10/12---7-10/12~~-5-3-0--------------------|Intro x4 (on 4th time, hold last note)
B|-----------------------------------|>After Verse 1--| x2
G|-----------------------------------|>After Verse 2--| x3
D|----------------------------------------------------|On 4th time after Verse 2,
A|----------------------------------------------------|use variation below
E|-12-12-7-10/12---7-10/12~~-5-3-0--------------------|

Variation
e|-12-12-12---12-12/15-107---53-3-0---------|
B|------------------------------------------|
G|------------------------------------------|
D|------------------------------------------|
A|------------------------------------------|
E|-12-12-12---12-12/15-107---53-3-0---------|


Before and After Piano Solo:
e|--------------------------|
B|--------------------------|
G|--------------------------|
D|--2--2--2--5/7------------|
A|--2--2--2--5/7------------|
E|--0--0--0--3/5------------|

| /  slide up
|   slide down
| h  hammer-on
| p  pull-off
| ~  vibrato
| +  harmonic
| x  Mute note
============================================================

I love this song, so I figured I'd tab it out the way I think it should be played.  
but fantastic song.
Suggest correction
Give kudos to tab author, rate the tab!
1 2 3 4 5
comments
print report bad tab
1 comment total.
0 reply
thishollowhill 10 wrote on August 11 2006, 02:40 am

close, but there are some mistakes in the intro. all the notes played on the guitar are on the high E string only. The low melody is being mirrored on the bass. :)

guest
You may want to rate the tab now too:
select rating
Wanna post a correction for this tab? Suggest correction