Oops, an error
Loading. Please wait.

Every Planet We Reach Is Dead Bass Tab

version 3
version 3

Whole song

Interactive

11,954 views 72 this week
no commentswrite comment
1 2 3 4 5
x 17
add to favorites
launch autoscroll
font size
0
reset
guitar tuner
Autoscroll
slow
fast
+/-
esc
set tempo
stop
Help us to improve Ultimate-Guitar.com Take our survey!
×
Author
Difficulty
intermediate
Every Planet We Reach is Dead - Gorillaz
Tabbed By : David Dubrow (Raccio14)
e-mail: Raccio14@gmail.com

Very good song, in which the bass takes the lead and follows the vocals for the most 
I took a while to tab this, as the other two tabs were total garbage, so please take your 
and actually play it before rating.

[Moderate swing]
[Intro]
(with distortion)
G|-------------------------------|
D|-------------------------------|
A|--7-7---5-7----5-7-------------|
E|-------0------0------5-3---0---| x6

[Verse 1]
("I lost my...")
G|--9--9--7------------------------------------------------------------------|
D|-------------10-10--9----7-7/9-------7--9-7------------9-7----7--9---------|
A|------------7------------------7--------------10-9---------10------10--7-7-|
E|---------------------------------------------------------------------------|

[Intro x2]

[Verse 2]
("dreams aren't bad...")
G|-9--9--7--------------------------------------------------------|
D|------------10-10--9----7--9-------7--9-7-----------------------|
A|-----------------------------7-------------10-----12--12-12\5---|
E|----------------------------------------------------------------|

("to see the sun...")
G|--------------------------------------------------------|
D|--7---7---7h9p7-----------------------------------------|
A|----------------10----10-10/14--10-9------------------7-|
E|----------------------------------------7-7-7-/14--10---|

[Intro](x4)

[Verse 3]
("picture on the...")
G|-9--9-9-9------------------------------------------|
D|----------9--7---7------------------------------7--|
A|--------------------10-10-7----------------7-10----|
E|-----------------------------10----8---8-8---------|

("time is a loan...")                     (piano enters here)
G|-7--9-7---------7---------------------9--9--7-----------------------|
D|--------10---10---9------------------------------10-10-9----7--9----|
A|-------------------------------------7----------7----------------7--|
E|-----------------------7-7-7-/14--10--------------------------------|

                                ("love you...")
G|-----------------------------------------------------------------------------|
D|-7--9-7-------7--7-7-0---7--7-7--7h9p7---------------------------------------|
A|---------10----------------------------10----10--/14-10-9------------9----7--|
E|--------------------------------------------------------------7-7-7----10----|

[Ending]
G|--------------------|
D|--------------------|  the entire ending, starting at 2:38 is just
A|--7--7-7-7-7-7------|  variations on this riff repeated until the end.
E|---------------0----|  --Improvise a bit; it's good for you--
Suggest correction
comments
print report bad tab
guest
You may want to rate the tab now too:
select rating
Wanna post a correction for this tab? Suggest correction