Oops, an error
Loading. Please wait.

Every Planet We Reach Is Dead Tab

version 3
version 3

Interactive

1,733 views 6 this week
2 commentsread comments
1 2 3 4 5
x 4
add to favorites
launch autoscroll
font size
0
reset
how to read this tab
guitar tuner
Autoscroll
slow
fast
+/-
esc
set tempo
stop
Help us to improve Ultimate-Guitar.com Take our survey!
×
Difficulty
novice
Intro

e------------------------------|------------------------------|
B-3/5-5-5-3-5-0-3-5-0----------|-3/5-5-5-3-5-0-3-5-3-5--------|
G---------------------2-0------|--------------------2-0-------| x2
D-------------------------2~~~~|------------------------------| ritardando
A------------------------------|------------------------------| on 2nd
E------------------------------|------------------------------|


Intro Ending
e------------------------------|
B------------------------------|
G------------------------------|
D-2hb-2-2----------------------|
A---------3--------------------|
E------------4~~~~~------------|

Verse (But I love the girl...)

e------------------------------|
B------------------------------|
G------------------------------| x4 (i think)
D-7----7----5----5----3----2---| 
A-7----7----5----5----3----2---|
E-7----7----5----5----3----2---|

Outro

e------------------------------|------------------------------|
B-3/5-5-5-3-5-0-3-5-0----------|-3/5-5-5-3-5-0-3-5-3-5--------|
G---------------------2-0------|--------------------2-0-------| x3
D-------------------------2~~~~|------------------------------| ritardando
A------------------------------|------------------------------| on 3nd
E------------------------------|------------------------------|

then

e-000000000000---0-3-----------|
B--------------------3---------|
G----------------------2--2-0~~| <--- keep the vibrato until the sound stops
D------------------------------|
A------------------------------|
E------------------------------|
Suggest correction
comments
print report bad tab
2 comments total.
0 reply
lose5142 51 Feb 16, 2007 12:14 PM

sounds good to me ill try it out

0 reply
metaldrummer15 41 Feb 16, 2007 03:41 PM

YESSSSSSSSSSSS!!!!!!!!!!!! this is my first tab and i got 2 5's so far. sweet.

anyway, i think i might have mixed up the intro it goes like this for the e string:

e|-3/5-5-5-0-3-5-0-3-5-------|

i switched the 0's to the end of the set of 3 notes... if that makes sense

guest
You may want to rate the tab now too:
select rating
Wanna post a correction for this tab? Suggest correction