Oops, an error
Loading. Please wait.

Every Planet We Reach Is Dead Tab

version 5
version 5

Interactive

421 views 3 this week
no commentswrite comment
1 2 3 4 5
please rate
add to favorites
launch autoscroll
font size
0
reset
how to read this tab
guitar tuner
Autoscroll
slow
fast
+/-
esc
set tempo
stop
Help us to improve Ultimate-Guitar.com Take our survey!
×
I mainly decided to tab this because all the other tabs used only the high e string, and 
didnt sound normal. Tabbed by Italikz. ;)

Intro:
E|-10--12-12-12-10-12--12-10-12--5-3-0-|
B|-10--12-12-12-10-12--12-10-12----3-0-|
G|-------------------------------------|
D|-------------------------------------|
A|-------------------------------------|
E|-------------------------------------|

E|-12-12-12-10-12--12-10-12--5-3-0-----| x2
B|-12-12-12-10-12--12-10-12--5-3-0-----| x2
G|-------------------------------------|
D|-------------------------------------|
A|-------------------------------------|
E|-------------------------------------|

E|-12-12-12-10-12--12-10-12--5-3-0-00000--00000|
B|-12-12-12-10-12--12-10-12--------------------|
G|---------------------------------------------|
D|---------------------------------------------|
A|---------------------------------------------|
E|---------------------------------------------|

For the rest just do repeat the second tab the right amount of times.
thxuvm, if you find any mistakes just fix them for yourself, no need to contact me or 
I'm pretty sure this is 95% correct.
Suggest correction
Give kudos to tab author, rate the tab!
1 2 3 4 5
comments
print report bad tab
guest
You may want to rate the tab now too:
select rating
Please do not post tabs as comments. Select "correction" instead!