Oops, an error
Loading. Please wait.

Every Planet We Reach Is Dead Tab

version 6
version 6

Intro

Interactive

6,249 views 6 this week
no commentswrite comment
1 2 3 4 5
excellent!
x 10
add to favorites
launch autoscroll
font size
0
reset
how to read this tab
guitar tuner
Tab Pro tools
  • play this tab
  • loop segment
  • change instrument
  • show fretboard
  • metronome
Autoscroll
slow
fast
+/-
esc
set tempo
stop
Contributor
-------------------------------------------------------------------------------
               EVERY PLANET WE REACH IS DEAD - Gorillaz
                          (Album: Demon Days)
-------------------------------------------------------------------------------
Tabbed by: Scott Elwood
Email: scottelwood@rocketmail.com

Notes: This is my first tab ever but don't let that fool you. I was learning songs on a
shuffle and this song popped up. Unfortunately the tabs on UG were not good at all, so I
an hour or two getting a more perfected version. There may be slight variations here and 
but as far as I know this is the best tab out there for this song.

Please rate my tabs, the more you rate the more I will tab.

Tuning: Standard (EADGBe)

e|-12-12-----10-/12---10/12---------|
B|-------12-------------------10-8--|
G|----------------------------------|
D|----------------------------------|
A|----------------------------------|
E|----------------------------------|

e|-/12-12----10-12---10/12----------|
B|--------12-----------------10-8---|
G|--------------------------------9-|
D|----------------------------------|
A|----------------------------------|
E|----------------------------------|

e|-/12-12----10-12---10/12----------|
B|--------12-----------------10-8---|
G|----------------------------------|
D|----------------------------------|
A|----------------------------------|
E|----------------------------------|

e|-/12-12----10-12---10/12----------|
B|--------12-----------------10-8---|
G|--------------------------------9-| (Let the 9 Ring out)
D|----------------------------------|
A|----------------------------------|
E|----------------------------------|

e|----------------------------------|
B|----------------------------------|
G|--------------------------------9-|
D|----------------------------------|
A|----------------------------------|
E|----------------------------------|

(00:49)

e|----12----10/12---10/12-----------|
B|-------12-----------------10-8----|
G|----------------------------------|
D|----------------------------------|
A|----------------------------------|
E|----------------------------------|

e|-/12-12----10/12---10/12----------|
B|--------12-----------------10-8---|
G|--------------------------------9-|
D|----------------------------------|
A|----------------------------------|
E|----------------------------------|

(1:26)

e|-/12-12----10/12---10/12----------|
B|--------12-----------------10-8---|
G|----------------------------------|
D|----------------------------------|
A|----------------------------------|
E|----------------------------------|

e|-/12-12----10/12---10/12----------|
B|--------12-----------------10-8---|
G|--------------------------------9-|
D|----------------------------------|
A|----------------------------------|
E|----------------------------------|

e|-/12-12----10/12---10/12----------|
B|--------12-----------------10-8---|
G|----------------------------------|
D|----------------------------------|
A|----------------------------------|
E|----------------------------------|

e|-/12-12----12----12h15----10h12---|
B|--------12-------------12---------|
G|----------------------------------|
D|----------------------------------|
A|----------------------------------|
E|----------------------------------|

e|----------------------------------|
B|-12p10--8-------------------------|
G|-----------9----------------------|
D|----------------------------------|
A|----------------------------------|
E|----------------------------------|

*Improvise throughout the given notes for a wicked solo. Use the 15 and 17 on the e
for higher notes*


| /  slide up
| \  slide down
| h  hammer-on
| p  pull-off
| ~  vibrato
| +  harmonic
| x  Mute note
===============================================================================
comments
print report bad tab
I want to post or [tab]
guest
You may want to rate the tab now too:
select rating
Please do not post tabs as comments. Select "correction" instead!